  0
SECTION
  2
HEADER
  9
$ACADVER
  1
AC1015
  9
$ACADMAINTVER
 70
     6
  9
$DWGCODEPAGE
  3
ANSI_932
  9
$INSBASE
 10
0.0
 20
0.0
 30
0.0
  9
$EXTMIN
 10
361.3638464991382
 20
251.6579067124239
 30
0.0
  9
$EXTMAX
 10
4161.363846499138
 20
5851.657906712424
 30
0.0
  9
$LIMMIN
 10
0.0
 20
0.0
  9
$LIMMAX
 10
420.0
 20
297.0
  9
$ORTHOMODE
 70
     0
  9
$REGENMODE
 70
     1
  9
$FILLMODE
 70
     1
  9
$QTEXTMODE
 70
     0
  9
$MIRRTEXT
 70
     0
  9
$LTSCALE
 40
1.0
  9
$ATTMODE
 70
     1
  9
$TEXTSIZE
 40
2.5
  9
$TRACEWID
 40
1.0
  9
$TEXTSTYLE
  7
Standard
  9
$CLAYER
  8
05鉄筋
  9
$CELTYPE
  6
ByLayer
  9
$CECOLOR
 62
   256
  9
$CELTSCALE
 40
1.0
  9
$DISPSILH
 70
     0
  9
$DIMSCALE
 40
0.0
  9
$DIMASZ
 40
2.5
  9
$DIMEXO
 40
0.625
  9
$DIMDLI
 40
3.75
  9
$DIMRND
 40
0.0
  9
$DIMDLE
 40
0.0
  9
$DIMEXE
 40
1.25
  9
$DIMTP
 40
0.0
  9
$DIMTM
 40
0.0
  9
$DIMTXT
 40
2.5
  9
$DIMCEN
 40
2.5
  9
$DIMTSZ
 40
0.0
  9
$DIMTOL
 70
     0
  9
$DIMLIM
 70
     0
  9
$DIMTIH
 70
     0
  9
$DIMTOH
 70
     0
  9
$DIMSE1
 70
     0
  9
$DIMSE2
 70
     0
  9
$DIMTAD
 70
     1
  9
$DIMZIN
 70
     8
  9
$DIMBLK
  1

  9
$DIMASO
 70
     1
  9
$DIMSHO
 70
     1
  9
$DIMPOST
  1

  9
$DIMAPOST
  1

  9
$DIMALT
 70
     0
  9
$DIMALTD
 70
     3
  9
$DIMALTF
 40
0.03937007874016
  9
$DIMLFAC
 40
1.0
  9
$DIMTOFL
 70
     1
  9
$DIMTVP
 40
0.0
  9
$DIMTIX
 70
     0
  9
$DIMSOXD
 70
     0
  9
$DIMSAH
 70
     0
  9
$DIMBLK1
  1

  9
$DIMBLK2
  1

  9
$DIMSTYLE
  2
Annotative
  9
$DIMCLRD
 70
     0
  9
$DIMCLRE
 70
     0
  9
$DIMCLRT
 70
     0
  9
$DIMTFAC
 40
1.0
  9
$DIMGAP
 40
0.625
  9
$DIMJUST
 70
     0
  9
$DIMSD1
 70
     0
  9
$DIMSD2
 70
     0
  9
$DIMTOLJ
 70
     0
  9
$DIMTZIN
 70
     8
  9
$DIMALTZ
 70
     0
  9
$DIMALTTZ
 70
     0
  9
$DIMUPT
 70
     0
  9
$DIMDEC
 70
     2
  9
$DIMTDEC
 70
     2
  9
$DIMALTU
 70
     2
  9
$DIMALTTD
 70
     3
  9
$DIMTXSTY
  7
Standard
  9
$DIMAUNIT
 70
     0
  9
$DIMADEC
 70
     0
  9
$DIMALTRND
 40
0.0
  9
$DIMAZIN
 70
     0
  9
$DIMDSEP
 70
    44
  9
$DIMATFIT
 70
     3
  9
$DIMFRAC
 70
     0
  9
$DIMLDRBLK
  1

  9
$DIMLUNIT
 70
     2
  9
$DIMLWD
 70
    -2
  9
$DIMLWE
 70
    -2
  9
$DIMTMOVE
 70
     0
  9
$LUNITS
 70
     2
  9
$LUPREC
 70
     4
  9
$SKETCHINC
 40
1.0
  9
$FILLETRAD
 40
0.0
  9
$AUNITS
 70
     0
  9
$AUPREC
 70
     0
  9
$MENU
  1
.
  9
$ELEVATION
 40
0.0
  9
$PELEVATION
 40
0.0
  9
$THICKNESS
 40
0.0
  9
$LIMCHECK
 70
     0
  9
$CHAMFERA
 40
0.0
  9
$CHAMFERB
 40
0.0
  9
$CHAMFERC
 40
0.0
  9
$CHAMFERD
 40
0.0
  9
$SKPOLY
 70
     0
  9
$TDCREATE
 40
2459461.631232801
  9
$TDUCREATE
 40
2459461.256232801
  9
$TDUPDATE
 40
2459850.684728704
  9
$TDUUPDATE
 40
2459850.309728704
  9
$TDINDWG
 40
8.2738942361
  9
$TDUSRTIMER
 40
8.2738917708
  9
$USRTIMER
 70
     1
  9
$ANGBASE
 50
0.0
  9
$ANGDIR
 70
     0
  9
$PDMODE
 70
     0
  9
$PDSIZE
 40
0.0
  9
$PLINEWID
 40
0.0
  9
$SPLFRAME
 70
     0
  9
$SPLINETYPE
 70
     6
  9
$SPLINESEGS
 70
     8
  9
$HANDSEED
  5
63A4
  9
$SURFTAB1
 70
     6
  9
$SURFTAB2
 70
     6
  9
$SURFTYPE
 70
     6
  9
$SURFU
 70
     6
  9
$SURFV
 70
     6
  9
$UCSBASE
  2

  9
$UCSNAME
  2

  9
$UCSORG
 10
0.0
 20
0.0
 30
0.0
  9
$UCSXDIR
 10
1.0
 20
0.0
 30
0.0
  9
$UCSYDIR
 10
0.0
 20
1.0
 30
0.0
  9
$UCSORTHOREF
  2

  9
$UCSORTHOVIEW
 70
     0
  9
$UCSORGTOP
 10
0.0
 20
0.0
 30
0.0
  9
$UCSORGBOTTOM
 10
0.0
 20
0.0
 30
0.0
  9
$UCSORGLEFT
 10
0.0
 20
0.0
 30
0.0
  9
$UCSORGRIGHT
 10
0.0
 20
0.0
 30
0.0
  9
$UCSORGFRONT
 10
0.0
 20
0.0
 30
0.0
  9
$UCSORGBACK
 10
0.0
 20
0.0
 30
0.0
  9
$PUCSBASE
  2

  9
$PUCSNAME
  2

  9
$PUCSORG
 10
0.0
 20
0.0
 30
0.0
  9
$PUCSXDIR
 10
1.0
 20
0.0
 30
0.0
  9
$PUCSYDIR
 10
0.0
 20
1.0
 30
0.0
  9
$PUCSORTHOREF
  2

  9
$PUCSORTHOVIEW
 70
     0
  9
$PUCSORGTOP
 10
0.0
 20
0.0
 30
0.0
  9
$PUCSORGBOTTOM
 10
0.0
 20
0.0
 30
0.0
  9
$PUCSORGLEFT
 10
0.0
 20
0.0
 30
0.0
  9
$PUCSORGRIGHT
 10
0.0
 20
0.0
 30
0.0
  9
$PUCSORGFRONT
 10
0.0
 20
0.0
 30
0.0
  9
$PUCSORGBACK
 10
0.0
 20
0.0
 30
0.0
  9
$USERI1
 70
     0
  9
$USERI2
 70
     0
  9
$USERI3
 70
     0
  9
$USERI4
 70
     0
  9
$USERI5
 70
     0
  9
$USERR1
 40
0.0
  9
$USERR2
 40
0.0
  9
$USERR3
 40
0.0
  9
$USERR4
 40
0.0
  9
$USERR5
 40
0.0
  9
$WORLDVIEW
 70
     1
  9
$SHADEDGE
 70
     3
  9
$SHADEDIF
 70
    70
  9
$TILEMODE
 70
     1
  9
$MAXACTVP
 70
    64
  9
$PINSBASE
 10
0.0
 20
0.0
 30
0.0
  9
$PLIMCHECK
 70
     0
  9
$PEXTMIN
 10
15.0979381443299
 20
17.31672394043528
 30
0.0
  9
$PEXTMAX
 10
241.9020618556701
 20
177.6832760595647
 30
0.0
  9
$PLIMMIN
 10
-20.0
 20
-7.5
  9
$PLIMMAX
 10
277.0
 20
202.5
  9
$UNITMODE
 70
     0
  9
$VISRETAIN
 70
     1
  9
$PLINEGEN
 70
     0
  9
$PSLTSCALE
 70
     1
  9
$TREEDEPTH
 70
  3020
  9
$CMLSTYLE
  2
Standard
  9
$CMLJUST
 70
     0
  9
$CMLSCALE
 40
20.0
  9
$PROXYGRAPHICS
 70
     1
  9
$MEASUREMENT
 70
     1
  9
$CELWEIGHT
370
    -1
  9
$ENDCAPS
280
     0
  9
$JOINSTYLE
280
     0
  9
$LWDISPLAY
290
     0
  9
$INSUNITS
 70
     4
  9
$HYPERLINKBASE
  1

  9
$STYLESHEET
  1

  9
$XEDIT
290
     1
  9
$CEPSNTYPE
380
     0
  9
$PSTYLEMODE
290
     1
  9
$FINGERPRINTGUID
  2
{358EE47A-6D51-4145-806D-79E5A97980B0}
  9
$VERSIONGUID
  2
{17461CC4-2873-4F30-979F-278A8F4A639A}
  9
$EXTNAMES
290
     1
  9
$PSVPSCALE
 40
0.0
  9
$OLESTARTUP
290
     0
  0
ENDSEC
  0
SECTION
  2
CLASSES
  0
CLASS
  1
ACDBDICTIONARYWDFLT
  2
AcDbDictionaryWithDefault
  3
ObjectDBX Classes
 90
        0
280
     0
281
     0
  0
CLASS
  1
ACDBPLACEHOLDER
  2
AcDbPlaceHolder
  3
ObjectDBX Classes
 90
        0
280
     0
281
     0
  0
CLASS
  1
LAYOUT
  2
AcDbLayout
  3
ObjectDBX Classes
 90
        0
280
     0
281
     0
  0
CLASS
  1
DICTIONARYVAR
  2
AcDbDictionaryVar
  3
ObjectDBX Classes
 90
        0
280
     0
281
     0
  0
CLASS
  1
TABLESTYLE
  2
AcDbTableStyle
  3
ObjectDBX Classes
 90
     4095
280
     0
281
     0
  0
CLASS
  1
MATERIAL
  2
AcDbMaterial
  3
ObjectDBX Classes
 90
     1153
280
     0
281
     0
  0
CLASS
  1
VISUALSTYLE
  2
AcDbVisualStyle
  3
ObjectDBX Classes
 90
     4095
280
     0
281
     0
  0
CLASS
  1
SCALE
  2
AcDbScale
  3
ObjectDBX Classes
 90
     1153
280
     0
281
     0
  0
CLASS
  1
MLEADERSTYLE
  2
AcDbMLeaderStyle
  3
ACDB_MLEADERSTYLE_CLASS
 90
     4095
280
     0
281
     0
  0
CLASS
  1
CELLSTYLEMAP
  2
AcDbCellStyleMap
  3
ObjectDBX Classes
 90
     1152
280
     0
281
     0
  0
CLASS
  1
EXACXREFPANELOBJECT
  2
ExAcXREFPanelObject
  3
EXAC_ESW
 90
     1025
280
     1
281
     0
  0
CLASS
  1
NPOCOLLECTION
  2
AcDbImpNonPersistentObjectsCollection
  3
ObjectDBX Classes
 90
     1153
280
     1
281
     0
  0
CLASS
  1
LAYER_INDEX
  2
AcDbLayerIndex
  3
ObjectDBX Classes
 90
        0
280
     0
281
     0
  0
CLASS
  1
SPATIAL_INDEX
  2
AcDbSpatialIndex
  3
AutoCAD 2000
 90
        0
280
     0
281
     0
  0
CLASS
  1
IDBUFFER
  2
AcDbIdBuffer
  3
ObjectDBX Classes
 90
        0
280
     0
281
     0
  0
CLASS
  1
ACDBSECTIONVIEWSTYLE
  2
AcDbSectionViewStyle
  3
ObjectDBX Classes
 90
     1025
280
     0
281
     0
  0
CLASS
  1
ACDBDETAILVIEWSTYLE
  2
AcDbDetailViewStyle
  3
ObjectDBX Classes
 90
     1025
280
     0
281
     0
  0
CLASS
  1
SORTENTSTABLE
  2
AcDbSortentsTable
  3
ObjectDBX Classes
 90
        0
280
     0
281
     0
  0
CLASS
  1
DIMASSOC
  2
AcDbDimAssoc
  3
"AcDbDimAssoc|Product Desc:     AcDim ARX App For Dimension|Company:          Autodesk, Inc.|WEB Address:      www.autodesk.com"
 90
        0
280
     0
281
     0
  0
CLASS
  1
ACDB_ALDIMOBJECTCONTEXTDATA_CLASS
  2
AcDbAlignedDimensionObjectContextData
  3
ObjectDBX Classes
 90
     1153
280
     0
281
     0
  0
CLASS
  1
ACDB_MTEXTOBJECTCONTEXTDATA_CLASS
  2
AcDbMTextObjectContextData
  3
ObjectDBX Classes
 90
     1153
280
     0
281
     0
  0
CLASS
  1
MULTILEADER
  2
AcDbMLeader
  3
ACDB_MLEADER_CLASS
 90
     1025
280
     0
281
     1
  0
CLASS
  1
ACDB_ANGDIMOBJECTCONTEXTDATA_CLASS
  2
AcDbAngularDimensionObjectContextData
  3
ObjectDBX Classes
 90
     1153
280
     0
281
     0
  0
ENDSEC
  0
SECTION
  2
TABLES
  0
TABLE
  2
VPORT
  5
8
102
{ACAD_XDICTIONARY
360
6365
102
}
330
0
100
AcDbSymbolTable
 70
     1
  0
VPORT
  5
EA
330
8
100
AcDbSymbolTableRecord
100
AcDbViewportTableRecord
  2
*Active
 70
     0
 10
0.0
 20
0.0
 11
1.0
 21
1.0
 12
4116.255987614387
 22
2870.55796825433
 13
0.0
 23
0.0
 14
10.0
 24
10.0
 15
10.0
 25
10.0
 16
0.0
 26
0.0
 36
1.0
 17
0.0
 27
0.0
 37
0.0
 40
6240.198816938253
 41
2.032175032175032
 42
50.0
 43
0.0
 44
0.0
 50
0.0
 51
0.0
 71
     0
 72
  1000
 73
     1
 74
     3
 75
     0
 76
     1
 77
     0
 78
     0
281
     0
 65
     1
110
0.0
120
0.0
130
0.0
111
1.0
121
0.0
131
0.0
112
0.0
122
1.0
132
0.0
 79
     0
146
0.0
1001
ACAD_NAV_VCDISPLAY
1070
     3
  0
ENDTAB
  0
TABLE
  2
LTYPE
  5
5
330
0
100
AcDbSymbolTable
 70
     8
  0
LTYPE
  5
14
330
5
100
AcDbSymbolTableRecord
100
AcDbLinetypeTableRecord
  2
ByBlock
 70
     0
  3

 72
    65
 73
     0
 40
0.0
  0
LTYPE
  5
15
330
5
100
AcDbSymbolTableRecord
100
AcDbLinetypeTableRecord
  2
ByLayer
 70
     0
  3

 72
    65
 73
     0
 40
0.0
  0
LTYPE
  5
16
330
5
100
AcDbSymbolTableRecord
100
AcDbLinetypeTableRecord
  2
Continuous
 70
     0
  3
Solid line
 72
    65
 73
     0
 40
0.0
  0
LTYPE
  5
B7C
330
5
100
AcDbSymbolTableRecord
100
AcDbLinetypeTableRecord
  2
DASHED2
 70
     0
  3
Dashed (0.5x) _ _ _ _ _ _ _ _ _ _ _ _ _ _ _ _ _
 72
    65
 73
     2
 40
9.524999999999999
 49
6.35
 74
     0
 49
-3.175
 74
     0
  0
LTYPE
  5
B9A
330
5
100
AcDbSymbolTableRecord
100
AcDbLinetypeTableRecord
  2
DASHDOT
 70
     0
  3
Dash dot __ . __ . __ . __ . __ . __ . __ . __
 72
    65
 73
     4
 40
25.4
 49
12.7
 74
     0
 49
-6.35
 74
     0
 49
0.0
 74
     0
 49
-6.35
 74
     0
  0
LTYPE
  5
21F1
330
5
100
AcDbSymbolTableRecord
100
AcDbLinetypeTableRecord
  2
DASHED
 70
     0
  3
Dashed __ __ __ __ __ __ __ __ __ __ __ __ __ _
 72
    65
 73
     2
 40
19.05
 49
12.7
 74
     0
 49
-6.35
 74
     0
  0
LTYPE
  5
21F4
330
5
100
AcDbSymbolTableRecord
100
AcDbLinetypeTableRecord
  2
DASHEDX2
 70
     0
  3
Dashed (2.0x) ____  ____  ____  ____  ____  ___
 72
    65
 73
     2
 40
38.09999999999999
 49
25.4
 74
     0
 49
-12.7
 74
     0
  0
LTYPE
  5
2565
330
5
100
AcDbSymbolTableRecord
100
AcDbLinetypeTableRecord
  2
GCAD_ISO03W100
 70
     0
  3
ISO dash space __    __    __    __    __    __
 72
    65
 73
     2
 40
30.0
 49
12.0
 74
     0
 49
-18.0
 74
     0
  0
LTYPE
  5
3297
330
5
100
AcDbSymbolTableRecord
100
AcDbLinetypeTableRecord
  2
DOT2
 70
     0
  3
Dot (0.5x) ....................................
 72
    65
 73
     2
 40
3.175
 49
0.0
 74
     0
 49
-3.175
 74
     0
  0
LTYPE
  5
4290
330
5
100
AcDbSymbolTableRecord
100
AcDbLinetypeTableRecord
  2
DASHED1_5
 70
     0
  3
DASHED1_5
 72
    65
 73
     2
 40
0.02
 49
0.01
 74
     0
 49
-0.01
 74
     0
  0
ENDTAB
  0
TABLE
  2
LAYER
  5
2
102
{ACAD_XDICTIONARY
360
1FF
102
}
330
0
100
AcDbSymbolTable
 70
    24
  0
LAYER
  5
10
102
{ACAD_XDICTIONARY
360
11F4
102
}
330
2
100
AcDbSymbolTableRecord
100
AcDbLayerTableRecord
  2
0
 70
     0
 62
     7
  6
Continuous
370
    -3
390
F
1001
AcAecLayerStandard
1000

1000

1001
AcCmTransparency
1071
 33554687
  0
LAYER
  5
231
102
{ACAD_XDICTIONARY
360
233
102
}
330
2
100
AcDbSymbolTableRecord
100
AcDbLayerTableRecord
  2
02メイン楮図
 70
     0
 62
     1
  6
Continuous
370
    20
390
F
1001
AcAecLayerStandard
1000

1000

1001
AcCmTransparency
1071
 33554687
  0
LAYER
  5
9CD
102
{ACAD_XDICTIONARY
360
9CE
102
}
330
2
100
AcDbSymbolTableRecord
100
AcDbLayerTableRecord
  2
04側溝内部
 70
     0
 62
     4
  6
DASHED2
370
    18
390
F
1001
AcAecLayerStandard
1000

1000

1001
AcCmTransparency
1071
 33554687
  0
LAYER
  5
AAE
102
{ACAD_XDICTIONARY
360
11F1
102
}
330
2
100
AcDbSymbolTableRecord
100
AcDbLayerTableRecord
  2
Defpoints
 70
     0
 62
     7
  6
Continuous
290
     0
370
    -3
390
F
1001
AcAecLayerStandard
1000

1000

1001
AcCmTransparency
1071
 33554687
  0
LAYER
  5
DA9
102
{ACAD_XDICTIONARY
360
DAA
102
}
330
2
100
AcDbSymbolTableRecord
100
AcDbLayerTableRecord
  2
03管きょ
 70
     0
 62
   140
  6
Continuous
370
    18
390
F
1001
AcAecLayerStandard
1000

1000

1001
AcCmTransparency
1071
 33554687
  0
LAYER
  5
DB6
102
{ACAD_XDICTIONARY
360
DB7
102
}
330
2
100
AcDbSymbolTableRecord
100
AcDbLayerTableRecord
  2
01既設
 70
     0
 62
     8
  6
Continuous
370
    13
390
F
1001
AcAecLayerStandard
1000

1000

1001
AcCmTransparency
1071
 33554687
  0
LAYER
  5
FF5
102
{ACAD_XDICTIONARY
360
FF6
102
}
330
2
100
AcDbSymbolTableRecord
100
AcDbLayerTableRecord
  2
05鉄筋
 70
     0
 62
     3
  6
Continuous
370
    53
390
F
1001
AcAecLayerStandard
1000

1000

1001
AcCmTransparency
1071
 33554687
  0
LAYER
  5
226D
102
{ACAD_XDICTIONARY
360
226E
102
}
330
2
100
AcDbSymbolTableRecord
100
AcDbLayerTableRecord
  2
99注釈、説明
 70
     0
 62
     7
  6
Continuous
370
    18
390
F
1001
AcAecLayerStandard
1000

1000

1001
AcCmTransparency
1071
 33554687
  0
LAYER
  5
2A26
102
{ACAD_XDICTIONARY
360
2A27
102
}
330
2
100
AcDbSymbolTableRecord
100
AcDbLayerTableRecord
  2
98印刷用
 70
     0
 62
     6
  6
Continuous
370
    18
390
F
1001
AcAecLayerStandard
1000

1000

1001
AcCmTransparency
1071
 33554687
  0
LAYER
  5
32A6
102
{ACAD_XDICTIONARY
360
32A7
102
}
330
2
100
AcDbSymbolTableRecord
100
AcDbLayerTableRecord
  2
画層1
 70
     0
 62
     1
  6
Continuous
370
    20
390
F
1001
AcAecLayerStandard
1000

1000

1001
AcCmTransparency
1071
 33554687
  0
LAYER
  5
357B
102
{ACAD_XDICTIONARY
360
357C
102
}
330
2
100
AcDbSymbolTableRecord
100
AcDbLayerTableRecord
  2
D-STR-DIM
 70
     0
 62
     7
  6
Continuous
370
    15
390
F
1001
AcAecLayerStandard
1000

1000

1001
AcCmTransparency
1071
 33554687
  0
LAYER
  5
3583
102
{ACAD_XDICTIONARY
360
3584
102
}
330
2
100
AcDbSymbolTableRecord
100
AcDbLayerTableRecord
  2
D-DCR-HCH
 70
     0
 62
     7
  6
Continuous
370
    15
390
F
1001
AcAecLayerStandard
1000

1000

1001
AcCmTransparency
1071
 33554687
  0
LAYER
  5
3586
102
{ACAD_XDICTIONARY
360
5C2E
102
}
330
2
100
AcDbSymbolTableRecord
100
AcDbLayerTableRecord
  2
変更
 70
     0
 62
     1
  6
Continuous
370
    15
390
F
1001
AcAecLayerStandard
1000

1000

1001
AcCmTransparency
1071
 33554687
  0
LAYER
  5
374C
102
{ACAD_XDICTIONARY
360
5C30
102
}
330
2
100
AcDbSymbolTableRecord
100
AcDbLayerTableRecord
  2
変更構造
 70
     0
 62
     1
  6
Continuous
370
    15
390
F
1001
AcAecLayerStandard
1000

1000

1001
AcCmTransparency
1071
 33554687
  0
LAYER
  5
427B
102
{ACAD_XDICTIONARY
360
427C
102
}
330
2
100
AcDbSymbolTableRecord
100
AcDbLayerTableRecord
  2
D-STR-TXT
 70
     0
 62
     7
  6
Continuous
370
    15
390
F
1001
AcAecLayerStandard
1000

1000

1001
AcCmTransparency
1071
 33554687
  0
LAYER
  5
4285
102
{ACAD_XDICTIONARY
360
4286
102
}
330
2
100
AcDbSymbolTableRecord
100
AcDbLayerTableRecord
  2
D-STR
 70
     0
 62
     7
  6
Continuous
370
    15
390
F
1001
AcAecLayerStandard
1000

1000

1001
AcCmTransparency
1071
 33554687
  0
LAYER
  5
4288
102
{ACAD_XDICTIONARY
360
4289
102
}
330
2
100
AcDbSymbolTableRecord
100
AcDbLayerTableRecord
  2
D-BGD
 70
     0
 62
     7
  6
Continuous
370
    15
390
F
1001
AcAecLayerStandard
1000

1000

1001
AcCmTransparency
1071
 33554687
  0
ENDTAB
  0
TABLE
  2
STYLE
  5
3
330
0
100
AcDbSymbolTable
 70
     5
  0
STYLE
  5
11
330
3
100
AcDbSymbolTableRecord
100
AcDbTextStyleTableRecord
  2
Standard
 70
     0
 40
0.0
 41
1.0
 50
0.0
 71
     0
 42
2.5
  3
txt.shx
  4
extfont2.shx
1001
AcadAnnotative
1000
AnnotativeData
1002
{
1070
     1
1070
     1
1002
}
1001
AcadAnnoPO
1070
     1
  0
STYLE
  5
132
330
3
100
AcDbSymbolTableRecord
100
AcDbTextStyleTableRecord
  2
Annotative
 70
     0
 40
0.0
 41
1.0
 50
0.0
 71
     0
 42
2.5
  3
txt.shx
  4
extfont2.shx
1001
AcadAnnotative
1000
AnnotativeData
1002
{
1070
     1
1070
     1
1002
}
  0
STYLE
  5
358A
330
3
100
AcDbSymbolTableRecord
100
AcDbTextStyleTableRecord
  2
YOKO_GOTHIC
 70
     0
 40
0.0
 41
1.0
 50
0.0
 71
     0
 42
0.0
  3
msgothic.ttc
  4

1001
ACAD
1000
MS Gothic
1071
    32817
  0
STYLE
  5
374F
330
3
100
AcDbSymbolTableRecord
100
AcDbTextStyleTableRecord
  2
ゴシック
 70
     0
 40
0.0
 41
1.0
 50
0.0
 71
     0
 42
70.0
  3

  4

1001
ACAD
1000
MS Gothic
1071
    32817
  0
STYLE
  5
375B
330
3
100
AcDbSymbolTableRecord
100
AcDbTextStyleTableRecord
  2
STANDARD_DIM
 70
     0
 40
0.0
 41
0.8
 50
0.0
 71
     0
 42
70.0
  3
ROMANS
  4
extfont
  0
ENDTAB
  0
TABLE
  2
VIEW
  5
6
330
0
100
AcDbSymbolTable
 70
     0
  0
ENDTAB
  0
TABLE
  2
UCS
  5
7
330
0
100
AcDbSymbolTable
 70
     0
  0
ENDTAB
  0
TABLE
  2
APPID
  5
9
330
0
100
AcDbSymbolTable
 70
    18
  0
APPID
  5
12
330
9
100
AcDbSymbolTableRecord
100
AcDbRegAppTableRecord
  2
ACAD
 70
     0
  0
APPID
  5
9E
330
9
100
AcDbSymbolTableRecord
100
AcDbRegAppTableRecord
  2
ACAD_PSEXT
 70
     0
  0
APPID
  5
133
330
9
100
AcDbSymbolTableRecord
100
AcDbRegAppTableRecord
  2
AcadAnnoPO
 70
     0
  0
APPID
  5
134
330
9
100
AcDbSymbolTableRecord
100
AcDbRegAppTableRecord
  2
AcadAnnotative
 70
     0
  0
APPID
  5
135
330
9
100
AcDbSymbolTableRecord
100
AcDbRegAppTableRecord
  2
ACAD_DSTYLE_DIMJAG
 70
     0
  0
APPID
  5
136
330
9
100
AcDbSymbolTableRecord
100
AcDbRegAppTableRecord
  2
ACAD_DSTYLE_DIMTALN
 70
     0
  0
APPID
  5
165
330
9
100
AcDbSymbolTableRecord
100
AcDbRegAppTableRecord
  2
ACAD_MLEADERVER
 70
     0
  0
APPID
  5
217
330
9
100
AcDbSymbolTableRecord
100
AcDbRegAppTableRecord
  2
ACAD_NAV_VCDISPLAY
 70
     0
  0
APPID
  5
232
330
9
100
AcDbSymbolTableRecord
100
AcDbRegAppTableRecord
  2
AcAecLayerStandard
 70
     0
  0
APPID
  5
235
330
9
100
AcDbSymbolTableRecord
100
AcDbRegAppTableRecord
  2
AcCmTransparency
 70
     0
  0
APPID
  5
773
330
9
100
AcDbSymbolTableRecord
100
AcDbRegAppTableRecord
  2
PLOTTRANSPARENCY
 70
     0
  0
APPID
  5
22AD
330
9
100
AcDbSymbolTableRecord
100
AcDbRegAppTableRecord
  2
ACAD_DIMASSOC_CALC_DIMLFAC
 70
     0
  0
APPID
  5
22AE
330
9
100
AcDbSymbolTableRecord
100
AcDbRegAppTableRecord
  2
ACAD_DIMASSOC_DIMLFAC
 70
     0
  0
APPID
  5
22AF
330
9
100
AcDbSymbolTableRecord
100
AcDbRegAppTableRecord
  2
ACAD_DIMASSOC_OVERRIDDEN_DIMLFAC
 70
     0
  0
APPID
  5
358D
330
9
100
AcDbSymbolTableRecord
100
AcDbRegAppTableRecord
  2
AcDbDynamicBlockGUID
 70
     0
  0
APPID
  5
358E
330
9
100
AcDbSymbolTableRecord
100
AcDbRegAppTableRecord
  2
AcDbBlockRepETag
 70
     0
  0
APPID
  5
3756
330
9
100
AcDbSymbolTableRecord
100
AcDbRegAppTableRecord
  2
ACAD_DSTYLE_DIMJOGGED_JOGANGLE_SYMBOL
 70
     0
  0
APPID
  5
375E
330
9
100
AcDbSymbolTableRecord
100
AcDbRegAppTableRecord
  2
ADE
 70
     0
  0
ENDTAB
  0
TABLE
  2
DIMSTYLE
  5
A
330
0
100
AcDbSymbolTable
 70
     7
100
AcDbDimStyleTable
  0
DIMSTYLE
105
1B0
330
A
100
AcDbSymbolTableRecord
100
AcDbDimStyleTableRecord
  2
Standard
 70
     0
178
     0
340
11
  0
DIMSTYLE
105
137
330
A
100
AcDbSymbolTableRecord
100
AcDbDimStyleTableRecord
  2
Annotative
 70
     0
 40
0.0
 41
2.5
 42
0.625
 43
3.75
 44
1.25
 73
     0
 74
     0
 77
     1
 78
     8
140
2.5
141
2.5
143
0.03937007874016
147
0.625
171
     3
172
     1
178
     0
271
     2
272
     2
274
     3
278
    44
283
     0
284
     8
340
11
1001
AcadAnnotative
1000
AnnotativeData
1002
{
1070
     1
1070
     1
1002
}
1001
ACAD_DSTYLE_DIMJAG
1070
   388
1040
1.5
1001
ACAD_DSTYLE_DIMTALN
1070
   392
1070
     0
  0
DIMSTYLE
105
27
330
A
100
AcDbSymbolTableRecord
100
AcDbDimStyleTableRecord
  2
ISO-25
 70
     0
 41
2.5
 42
0.625
 43
3.75
 44
1.25
 73
     0
 74
     0
 77
     1
 78
     8
140
2.5
141
2.5
143
0.03937007874016
147
0.625
171
     3
172
     1
178
     0
271
     2
272
     2
274
     3
278
    44
283
     0
284
     8
340
11
  0
DIMSTYLE
105
3589
330
A
100
AcDbSymbolTableRecord
100
AcDbDimStyleTableRecord
  2
Vnas_Gothic
 70
     0
 73
     0
 74
     0
 77
     1
173
     1
178
     0
340
358A
  0
DIMSTYLE
105
374E
330
A
100
AcDbSymbolTableRecord
100
AcDbDimStyleTableRecord
  2
20
 70
     0
 40
20.0
 41
1.0
 42
1.0
 43
8.0
 44
1.0
 73
     0
 74
     0
 77
     1
 78
    12
140
3.5
141
2.0
143
0.0394
147
0.2
171
     4
172
     1
174
     1
176
     1
177
     1
271
     0
178
     1
271
     0
272
     0
273
     8
274
     4
275
     1
279
     2
340
374F
341
3750
342
3750
1001
ACAD_DSTYLE_DIMJOGGED_JOGANGLE_SYMBOL
1070
   384
1040
0.7853981633974483
1001
ACAD_DSTYLE_DIMJAG
1070
   388
1040
1.5
1001
ACAD_DSTYLE_DIMTALN
1070
   392
1070
     0
  0
DIMSTYLE
105
3759
330
A
100
AcDbSymbolTableRecord
100
AcDbDimStyleTableRecord
  2
10
 70
     0
 40
20.0
 41
1.0
 42
1.0
 43
8.0
 44
1.0
 73
     0
 74
     0
 77
     1
 78
    12
140
3.5
141
2.0
143
0.0394
144
0.5
147
0.5
171
     4
172
     1
174
     1
176
     1
177
     1
271
     0
178
     1
271
     0
272
     0
273
     8
274
     4
275
     1
279
     2
340
374F
341
3750
342
3750
1001
ACAD_DSTYLE_DIMJOGGED_JOGANGLE_SYMBOL
1070
   384
1040
0.7853981633974483
1001
ACAD_DSTYLE_DIMJAG
1070
   388
1040
1.5
1001
ACAD_DSTYLE_DIMTALN
1070
   392
1070
     0
  0
DIMSTYLE
105
375A
330
A
100
AcDbSymbolTableRecord
100
AcDbDimStyleTableRecord
  2
STANDARD20
 70
     0
 40
20.0
 41
1.5
 42
1.0
 43
7.0
 44
0.5
 46
3.0
 73
     0
 74
     0
 77
     1
140
3.5
141
-1.0
145
0.7
147
0.1
172
     1
174
     1
175
     1
176
   256
177
   256
271
     0
178
   256
271
     0
272
     0
279
     2
340
375B
341
3750
342
3750
371
    -1
372
    -1
  0
ENDTAB
  0
TABLE
  2
BLOCK_RECORD
  5
1
330
0
100
AcDbSymbolTable
 70
   411
  0
BLOCK_RECORD
  5
1F
102
{ACAD_XDICTIONARY
360
8E4
102
}
330
1
100
AcDbSymbolTableRecord
100
AcDbBlockTableRecord
  2
*Model_Space
340
22
  0
BLOCK_RECORD
  5
62E3
330
1
100
AcDbSymbolTableRecord
100
AcDbBlockTableRecord
  2
*Paper_Space
340
62E4
  0
BLOCK_RECORD
  5
C8A
102
{ACAD_XDICTIONARY
360
CBF
102
}
330
1
100
AcDbSymbolTableRecord
100
AcDbBlockTableRecord
  2
G$C45EB5891
340
0
  0
BLOCK_RECORD
  5
1998
102
{ACAD_XDICTIONARY
360
19CD
102
}
330
1
100
AcDbSymbolTableRecord
100
AcDbBlockTableRecord
  2
G$CDE5504C1
340
0
  0
BLOCK_RECORD
  5
2FBA
102
{ACAD_XDICTIONARY
360
2FEF
102
}
330
1
100
AcDbSymbolTableRecord
100
AcDbBlockTableRecord
  2
G$C82C1F754
340
0
  0
BLOCK_RECORD
  5
35BA
330
1
100
AcDbSymbolTableRecord
100
AcDbBlockTableRecord
  2
_OPEN
340
0
  0
BLOCK_RECORD
  5
35DD
330
1
100
AcDbSymbolTableRecord
100
AcDbBlockTableRecord
  2
HATCH4
340
0
102
{BLKREFS
331
36A4
102
}
  0
BLOCK_RECORD
  5
35FB
330
1
100
AcDbSymbolTableRecord
100
AcDbBlockTableRecord
  2
HATCH5
340
0
102
{BLKREFS
331
36A5
102
}
1001
AcDbDynamicBlockGUID
1000
{4702585D-B7F1-4CCC-A9BB-B2BBDF977CF3}
1001
AcDbBlockRepETag
1070
     1
1071
       54
  0
BLOCK_RECORD
  5
3750
330
1
100
AcDbSymbolTableRecord
100
AcDbBlockTableRecord
  2
_OPEN30
340
0
  0
BLOCK_RECORD
  5
4343
330
1
100
AcDbSymbolTableRecord
100
AcDbBlockTableRecord
  2
HATCH6
340
0
102
{BLKREFS
331
43EE
102
}
  0
BLOCK_RECORD
  5
44D1
330
1
100
AcDbSymbolTableRecord
100
AcDbBlockTableRecord
  2
HATCH7
340
0
102
{BLKREFS
331
453D
102
}
  0
BLOCK_RECORD
  5
5E9E
102
{ACAD_XDICTIONARY
360
5ED3
102
}
330
1
100
AcDbSymbolTableRecord
100
AcDbBlockTableRecord
  2
G$CF45257B7
340
0
  0
ENDTAB
  0
ENDSEC
  0
SECTION
  2
BLOCKS
  0
BLOCK
  5
20
330
1F
100
AcDbEntity
  8
0
100
AcDbBlockBegin
  2
*Model_Space
 70
     0
 10
0.0
 20
0.0
 30
0.0
  3
*Model_Space
  1

  0
ENDBLK
  5
21
330
1F
100
AcDbEntity
  8
0
100
AcDbBlockEnd
  0
BLOCK
  5
62E5
330
62E3
100
AcDbEntity
 67
     1
  8
05鉄筋
100
AcDbBlockBegin
  2
*Paper_Space
 70
     0
 10
0.0
 20
0.0
 30
0.0
  3
*Paper_Space
  1
Acad:XRef
  0
ENDBLK
  5
62E6
330
62E3
100
AcDbEntity
 67
     1
  8
05鉄筋
100
AcDbBlockEnd
  0
BLOCK
  5
CCE
330
C8A
100
AcDbEntity
  8
02メイン楮図
100
AcDbBlockBegin
  2
G$C45EB5891
 70
     0
 10
0.0
 20
0.0
 30
0.0
  3
G$C45EB5891
  1
Acad:XRef
  0
LINE
  5
CC1
330
C8A
100
AcDbEntity
  8
02メイン楮図
100
AcDbLine
 10
995.0
 20
0.0
 30
0.0
 11
0.0
 21
0.0
 31
0.0
  0
LINE
  5
CC2
330
C8A
100
AcDbEntity
  8
02メイン楮図
100
AcDbLine
 10
1113.033988749841
 20
500.0
 30
0.0
 11
0.0
 21
500.0
 31
0.0
  0
LINE
  5
CC3
330
C8A
100
AcDbEntity
  8
02メイン楮図
100
AcDbLine
 10
995.0
 20
700.0
 30
0.0
 11
0.0
 21
700.0
 31
0.0
  0
LINE
  5
CC4
330
C8A
100
AcDbEntity
  8
04側溝内部
  6
Continuous
100
AcDbLine
 10
1030.410196624929
 20
150.0
 30
0.0
 11
0.0
 21
150.0
 31
0.0
  0
LINE
  5
CC5
330
C8A
100
AcDbEntity
  8
04側溝内部
  6
Continuous
100
AcDbLine
 10
1101.230589874787
 20
450.0
 30
0.0
 11
0.0
 21
450.0
 31
0.0
  0
LINE
  5
CC6
330
C8A
100
AcDbEntity
  8
02メイン楮図
100
AcDbLine
 10
995.0
 20
700.0
 30
0.0
 11
0.0
 21
700.0
 31
0.0
  0
LINE
  5
CC7
330
C8A
100
AcDbEntity
  8
02メイン楮図
100
AcDbLine
 10
0.0
 20
0.0
 30
0.0
 11
200.0
 21
0.0
 31
0.0
  0
LINE
  5
CC8
330
C8A
100
AcDbEntity
  8
02メイン楮図
100
AcDbLine
 10
995.0
 20
0.0
 30
0.0
 11
794.9999999997672
 21
0.0
 31
0.0
  0
LINE
  5
CC9
330
C8A
100
AcDbEntity
  8
02メイン楮図
100
AcDbLine
 10
794.9999999997672
 20
0.0
 30
0.0
 11
794.9999999997672
 21
0.0
 31
0.0
  0
LINE
  5
CCA
330
C8A
100
AcDbEntity
  8
02メイン楮図
100
AcDbLine
 10
794.9999999997672
 20
150.0
 30
0.0
 11
200.0
 21
450.0
 31
0.0
  0
LINE
  5
CCB
330
C8A
100
AcDbEntity
  8
02メイン楮図
100
AcDbLine
 10
794.9999999997672
 20
450.0
 30
0.0
 11
200.0
 21
150.0
 31
0.0
  0
LWPOLYLINE
  5
CCC
330
C8A
100
AcDbEntity
  8
02メイン楮図
100
AcDbPolyline
 90
        4
 70
     1
 43
0.0
 10
794.9999999997672
 20
450.0
 10
200.0
 20
450.0
 10
200.0
 20
150.0
 10
794.9999999997672
 20
150.0
  0
LINE
  5
CCD
330
C8A
100
AcDbEntity
  8
02メイン楮図
100
AcDbLine
 10
794.9999999997672
 20
0.0
 30
0.0
 11
794.9999999997672
 21
0.0
 31
0.0
  0
ENDBLK
  5
CCF
330
C8A
100
AcDbEntity
  8
02メイン楮図
100
AcDbBlockEnd
  0
BLOCK
  5
19D0
330
1998
100
AcDbEntity
  8
02メイン楮図
100
AcDbBlockBegin
  2
G$CDE5504C1
 70
     0
 10
0.0
 20
0.0
 30
0.0
  3
G$CDE5504C1
  1
Acad:XRef
  0
LINE
  5
19CF
330
1998
100
AcDbEntity
  8
02メイン楮図
100
AcDbLine
 10
0.0
 20
0.0
 30
0.0
 11
141.4213562374935
 21
141.4213562374935
 31
0.0
  0
ENDBLK
  5
19D1
330
1998
100
AcDbEntity
  8
02メイン楮図
100
AcDbBlockEnd
  0
BLOCK
  5
2FF2
330
2FBA
100
AcDbEntity
  8
03管きょ
100
AcDbBlockBegin
  2
G$C82C1F754
 70
     0
 10
0.0
 20
0.0
 30
0.0
  3
G$C82C1F754
  1
Acad:XRef
  0
LINE
  5
2FF1
330
2FBA
100
AcDbEntity
  8
02メイン楮図
100
AcDbLine
 10
143.219986953929
 20
143.2199869465585
 30
0.0
 11
0.0
 21
0.0
 31
0.0
  0
ENDBLK
  5
2FF3
330
2FBA
100
AcDbEntity
  8
03管きょ
100
AcDbBlockEnd
  0
BLOCK
  5
35BB
330
35BA
100
AcDbEntity
  8
0
100
AcDbBlockBegin
  2
_OPEN
 70
     0
 10
0.0
 20
0.0
 30
0.0
  3
_OPEN
  1

  0
LINE
  5
35BC
330
35BA
100
AcDbEntity
  8
0
  6
ByBlock
 62
     0
370
    -2
100
AcDbLine
 10
-1.0
 20
0.166667
 30
0.0
 11
0.0
 21
0.0
 31
0.0
  0
LINE
  5
35BD
330
35BA
100
AcDbEntity
  8
0
  6
ByBlock
 62
     0
370
    -2
100
AcDbLine
 10
0.0
 20
0.0
 30
0.0
 11
-1.0
 21
-0.166667
 31
0.0
  0
LINE
  5
35BE
330
35BA
100
AcDbEntity
  8
0
  6
ByBlock
 62
     0
370
    -2
100
AcDbLine
 10
0.0
 20
0.0
 30
0.0
 11
-1.0
 21
0.0
 31
0.0
  0
ENDBLK
  5
35BF
330
35BA
100
AcDbEntity
  8
0
100
AcDbBlockEnd
  0
BLOCK
  5
35DE
330
35DD
100
AcDbEntity
  8
0
100
AcDbBlockBegin
  2
HATCH4
 70
     0
 10
0.0
 20
0.0
 30
0.0
  3
HATCH4
  1

  0
LINE
  5
35DF
330
35DD
100
AcDbEntity
  8
D-DCR-HCH
100
AcDbLine
 10
4502.342003832851
 20
3827.169421519612
 30
0.0
 11
4533.330046912369
 21
3858.15746459913
 31
0.0
  0
LINE
  5
35E0
330
35DD
100
AcDbEntity
  8
D-DCR-HCH
100
AcDbLine
 10
4527.524220736528
 20
3808.15746459913
 30
0.0
 11
4577.524220736528
 21
3858.15746459913
 31
0.0
  0
LINE
  5
35E1
330
35DD
100
AcDbEntity
  8
D-DCR-HCH
100
AcDbLine
 10
4571.718394560687
 20
3808.15746459913
 30
0.0
 11
4621.718394560688
 21
3858.157464599131
 31
0.0
  0
LINE
  5
35E2
330
35DD
100
AcDbEntity
  8
D-DCR-HCH
100
AcDbLine
 10
4615.912568384846
 20
3808.15746459913
 30
0.0
 11
4665.912568384847
 21
3858.15746459913
 31
0.0
  0
LINE
  5
35E3
330
35DD
100
AcDbEntity
  8
D-DCR-HCH
100
AcDbLine
 10
4660.106742209005
 20
3808.15746459913
 30
0.0
 11
4710.106742209005
 21
3858.15746459913
 31
0.0
  0
LINE
  5
35E4
330
35DD
100
AcDbEntity
  8
D-DCR-HCH
100
AcDbLine
 10
4704.300916033165
 20
3808.15746459913
 30
0.0
 11
4754.300916033165
 21
3858.15746459913
 31
0.0
  0
LINE
  5
35E5
330
35DD
100
AcDbEntity
  8
D-DCR-HCH
100
AcDbLine
 10
4748.495089857324
 20
3808.15746459913
 30
0.0
 11
4798.495089857324
 21
3858.15746459913
 31
0.0
  0
LINE
  5
35E6
330
35DD
100
AcDbEntity
  8
D-DCR-HCH
100
AcDbLine
 10
4792.689263681484
 20
3808.15746459913
 30
0.0
 11
4836.883387410906
 21
3852.351588328552
 31
0.0
  0
LINE
  5
35E7
330
35DD
100
AcDbEntity
  8
D-DCR-HCH
100
AcDbLine
 10
4836.883387410906
 20
3852.351638423261
 30
0.0
 11
4842.689213586776
 21
3858.157464599131
 31
0.0
  0
LINE
  5
35E8
330
35DD
100
AcDbEntity
  8
D-DCR-HCH
100
AcDbLine
 10
4836.883387410933
 20
3808.15746459913
 30
0.0
 11
4886.883387410933
 21
3858.15746459913
 31
0.0
  0
LINE
  5
35E9
330
35DD
100
AcDbEntity
  8
D-DCR-HCH
100
AcDbLine
 10
4881.077561235093
 20
3808.15746459913
 30
0.0
 11
4931.077561235093
 21
3858.15746459913
 31
0.0
  0
LINE
  5
35EA
330
35DD
100
AcDbEntity
  8
D-DCR-HCH
100
AcDbLine
 10
4925.271735059253
 20
3808.15746459913
 30
0.0
 11
4975.271735059252
 21
3858.15746459913
 31
0.0
  0
LINE
  5
35EB
330
35DD
100
AcDbEntity
  8
D-DCR-HCH
100
AcDbLine
 10
4969.465908883411
 20
3808.15746459913
 30
0.0
 11
5019.465908883411
 21
3858.15746459913
 31
0.0
  0
LINE
  5
35EC
330
35DD
100
AcDbEntity
  8
D-DCR-HCH
100
AcDbLine
 10
5013.660082707572
 20
3808.15746459913
 30
0.0
 11
5063.660082707571
 21
3858.15746459913
 31
0.0
  0
LINE
  5
35ED
330
35DD
100
AcDbEntity
  8
D-DCR-HCH
100
AcDbLine
 10
5057.85425653173
 20
3808.15746459913
 30
0.0
 11
5107.854256531729
 21
3858.15746459913
 31
0.0
  0
LINE
  5
35EE
330
35DD
100
AcDbEntity
  8
D-DCR-HCH
100
AcDbLine
 10
5102.04843035589
 20
3808.15746459913
 30
0.0
 11
5152.04843035589
 21
3858.15746459913
 31
0.0
  0
LINE
  5
35EF
330
35DD
100
AcDbEntity
  8
D-DCR-HCH
100
AcDbLine
 10
5146.242604180047
 20
3808.157464599129
 30
0.0
 11
5196.242604180047
 21
3858.15746459913
 31
0.0
  0
LINE
  5
35F0
330
35DD
100
AcDbEntity
  8
D-DCR-HCH
100
AcDbLine
 10
5190.436778004207
 20
3808.157464599129
 30
0.0
 11
5240.436778004207
 21
3858.15746459913
 31
0.0
  0
LINE
  5
35F1
330
35DD
100
AcDbEntity
  8
D-DCR-HCH
100
AcDbLine
 10
5234.630951828367
 20
3808.15746459913
 30
0.0
 11
5284.630951828366
 21
3858.15746459913
 31
0.0
  0
LINE
  5
35F2
330
35DD
100
AcDbEntity
  8
D-DCR-HCH
100
AcDbLine
 10
5278.825125652525
 20
3808.15746459913
 30
0.0
 11
5328.825125652525
 21
3858.15746459913
 31
0.0
  0
LINE
  5
35F3
330
35DD
100
AcDbEntity
  8
D-DCR-HCH
100
AcDbLine
 10
5323.019299476684
 20
3808.157464599129
 30
0.0
 11
5373.019299476684
 21
3858.157464599129
 31
0.0
  0
LINE
  5
35F4
330
35DD
100
AcDbEntity
  8
D-DCR-HCH
100
AcDbLine
 10
5367.213473300844
 20
3808.15746459913
 30
0.0
 11
5417.213473300843
 21
3858.157464599129
 31
0.0
  0
LINE
  5
35F5
330
35DD
100
AcDbEntity
  8
D-DCR-HCH
100
AcDbLine
 10
5411.407647125003
 20
3808.157464599129
 30
0.0
 11
5461.407647125003
 21
3858.157464599129
 31
0.0
  0
LINE
  5
35F6
330
35DD
100
AcDbEntity
  8
D-DCR-HCH
100
AcDbLine
 10
5455.60182094916
 20
3808.157464599128
 30
0.0
 11
5505.60182094916
 21
3858.157464599128
 31
0.0
  0
LINE
  5
35F7
330
35DD
100
AcDbEntity
  8
D-DCR-HCH
100
AcDbLine
 10
5499.795994773322
 20
3808.157464599129
 30
0.0
 11
5549.795994773321
 21
3858.157464599128
 31
0.0
  0
LINE
  5
35F8
330
35DD
100
AcDbEntity
  8
D-DCR-HCH
100
AcDbLine
 10
5543.99016859748
 20
3808.157464599129
 30
0.0
 11
5549.542396824673
 21
3813.709692826322
 31
0.0
  0
ENDBLK
  5
35F9
330
35DD
100
AcDbEntity
  8
0
100
AcDbBlockEnd
  0
BLOCK
  5
35FC
330
35FB
100
AcDbEntity
  8
0
100
AcDbBlockBegin
  2
HATCH5
 70
     0
 10
0.0
 20
0.0
 30
0.0
  3
HATCH5
  1

  0
LINE
  5
35FD
330
35FB
100
AcDbEntity
  8
D-DCR-HCH
370
     0
100
AcDbLine
 10
4522.001354350758
 20
3763.681736327125
 30
0.0
 11
4504.188220942307
 21
3781.494869735577
 31
0.0
1001
AcDbBlockRepETag
1070
     1
1071
        0
1005
35FD
  0
LINE
  5
35FE
330
35FB
100
AcDbEntity
  8
D-DCR-HCH
370
     0
100
AcDbLine
 10
4571.719799902911
 20
3758.157464599131
 30
0.0
 11
4527.525626078778
 21
3802.351638423265
 31
0.0
1001
AcDbBlockRepETag
1070
     1
1071
        1
1005
35FE
  0
LINE
  5
35FF
330
35FB
100
AcDbEntity
  8
D-DCR-HCH
370
     0
100
AcDbLine
 10
4615.913973727072
 20
3758.15746459913
 30
0.0
 11
4588.292615086997
 21
3785.778823239205
 31
0.0
1001
AcDbBlockRepETag
1070
     1
1071
        2
1005
35FF
  0
LINE
  5
3600
330
35FB
100
AcDbEntity
  8
D-DCR-HCH
370
     0
100
AcDbLine
 10
4577.244071630957
 20
3796.827366695245
 30
0.0
 11
4577.244071630957
 21
3796.827366695245
 31
0.0
1001
AcDbBlockRepETag
1070
     1
1071
        3
1005
3600
  0
LINE
  5
3601
330
35FB
100
AcDbEntity
  8
D-DCR-HCH
370
     0
100
AcDbLine
 10
4566.195528174918
 20
3807.875910151284
 30
0.0
 11
4565.913973727072
 21
3808.15746459913
 31
0.0
1001
AcDbBlockRepETag
1070
     1
1071
        4
1005
3601
  0
LINE
  5
3602
330
35FB
100
AcDbEntity
  8
D-DCR-HCH
370
     0
100
AcDbLine
 10
4660.108147551231
 20
3758.15746459913
 30
0.0
 11
4649.059604095217
 21
3769.206008055146
 31
0.0
1001
AcDbBlockRepETag
1070
     1
1071
        5
1005
3602
  0
LINE
  5
3603
330
35FB
100
AcDbEntity
  8
D-DCR-HCH
370
     0
100
AcDbLine
 10
4638.011060639176
 20
3780.254551511185
 30
0.0
 11
4638.011060639176
 21
3780.254551511185
 31
0.0
1001
AcDbBlockRepETag
1070
     1
1071
        6
1005
3603
  0
LINE
  5
3604
330
35FB
100
AcDbEntity
  8
D-DCR-HCH
370
     0
100
AcDbLine
 10
4626.962517183137
 20
3791.303094967225
 30
0.0
 11
4610.108147551231
 21
3808.157464599131
 31
0.0
1001
AcDbBlockRepETag
1070
     1
1071
        7
1005
3604
  0
LINE
  5
3605
330
35FB
100
AcDbEntity
  8
D-DCR-HCH
370
     0
100
AcDbLine
 10
4698.778049647395
 20
3763.681736327125
 30
0.0
 11
4698.778049647395
 21
3763.681736327125
 31
0.0
1001
AcDbBlockRepETag
1070
     1
1071
        8
1005
3605
  0
LINE
  5
3606
330
35FB
100
AcDbEntity
  8
D-DCR-HCH
370
     0
100
AcDbLine
 10
4687.729506191356
 20
3774.730279783165
 30
0.0
 11
4654.30232137539
 21
3808.157464599131
 31
0.0
1001
AcDbBlockRepETag
1070
     1
1071
        9
1005
3606
  0
LINE
  5
3607
330
35FB
100
AcDbEntity
  8
D-DCR-HCH
370
     0
100
AcDbLine
 10
4748.49649519955
 20
3758.15746459913
 30
0.0
 11
4698.49649519955
 21
3808.15746459913
 31
0.0
1001
AcDbBlockRepETag
1070
     1
1071
       10
1005
3607
  0
LINE
  5
3608
330
35FB
100
AcDbEntity
  8
D-DCR-HCH
370
     0
100
AcDbLine
 10
4742.972223471555
 20
3807.875910151284
 30
0.0
 11
4742.972223471555
 21
3807.875910151284
 31
0.0
1001
AcDbBlockRepETag
1070
     1
1071
       11
1005
3608
  0
LINE
  5
3609
330
35FB
100
AcDbEntity
  8
D-DCR-HCH
370
     0
100
AcDbLine
 10
4748.496565598353
 20
3758.157464599105
 30
0.0
 11
4748.496495199574
 21
3758.157534997885
 31
0.0
1001
AcDbBlockRepETag
1070
     1
1071
       12
1005
3609
  0
LINE
  5
360A
330
35FB
100
AcDbEntity
  8
D-DCR-HCH
370
     0
100
AcDbLine
 10
4792.690739422487
 20
3758.157464599131
 30
0.0
 11
4754.020837326373
 21
3796.827366695245
 31
0.0
1001
AcDbBlockRepETag
1070
     1
1071
       13
1005
360A
  0
LINE
  5
360B
330
35FB
100
AcDbEntity
  8
D-DCR-HCH
370
     0
100
AcDbLine
 10
4836.884913246647
 20
3758.157464599131
 30
0.0
 11
4814.787826334592
 21
3780.254551511185
 31
0.0
1001
AcDbBlockRepETag
1070
     1
1071
       14
1005
360B
  0
LINE
  5
360C
330
35FB
100
AcDbEntity
  8
D-DCR-HCH
370
     0
100
AcDbLine
 10
4803.739282878552
 20
3791.303094967225
 30
0.0
 11
4803.739282878552
 21
3791.303094967225
 31
0.0
1001
AcDbBlockRepETag
1070
     1
1071
       15
1005
360C
  0
LINE
  5
360D
330
35FB
100
AcDbEntity
  8
D-DCR-HCH
370
     0
100
AcDbLine
 10
4792.690739422513
 20
3802.351638423265
 30
0.0
 11
4786.884913246648
 21
3808.15746459913
 31
0.0
1001
AcDbBlockRepETag
1070
     1
1071
       16
1005
360D
  0
LINE
  5
360E
330
35FB
100
AcDbEntity
  8
D-DCR-HCH
370
     0
100
AcDbLine
 10
4881.079087070806
 20
3758.15746459913
 30
0.0
 11
4875.554815342811
 21
3763.681736327126
 31
0.0
1001
AcDbBlockRepETag
1070
     1
1071
       17
1005
360E
  0
LINE
  5
360F
330
35FB
100
AcDbEntity
  8
D-DCR-HCH
370
     0
100
AcDbLine
 10
4864.506271886771
 20
3774.730279783165
 30
0.0
 11
4864.506271886771
 21
3774.730279783165
 31
0.0
1001
AcDbBlockRepETag
1070
     1
1071
       18
1005
360F
  0
LINE
  5
3610
330
35FB
100
AcDbEntity
  8
D-DCR-HCH
370
     0
100
AcDbLine
 10
4853.457728430732
 20
3785.778823239205
 30
0.0
 11
4831.079087070806
 21
3808.15746459913
 31
0.0
1001
AcDbBlockRepETag
1070
     1
1071
       19
1005
3610
  0
LINE
  5
3611
330
35FB
100
AcDbEntity
  8
D-DCR-HCH
370
     0
100
AcDbLine
 10
4925.27326089499
 20
3758.157464599105
 30
0.0
 11
4925.27326089499
 21
3758.157464599105
 31
0.0
1001
AcDbBlockRepETag
1070
     1
1071
       20
1005
3611
  0
LINE
  5
3612
330
35FB
100
AcDbEntity
  8
D-DCR-HCH
370
     0
100
AcDbLine
 10
4914.22471743895
 20
3769.206008055146
 30
0.0
 11
4875.273260894966
 21
3808.15746459913
 31
0.0
1001
AcDbBlockRepETag
1070
     1
1071
       21
1005
3612
  0
LINE
  5
3613
330
35FB
100
AcDbEntity
  8
D-DCR-HCH
370
     0
100
AcDbLine
 10
4969.467434719124
 20
3758.157464599131
 30
0.0
 11
4919.74898916697
 21
3807.875910151284
 31
0.0
1001
AcDbBlockRepETag
1070
     1
1071
       22
1005
3613
  0
LINE
  5
3614
330
35FB
100
AcDbEntity
  8
D-DCR-HCH
370
     0
100
AcDbLine
 10
5013.661608543284
 20
3758.15746459913
 30
0.0
 11
4980.515978175189
 21
3791.303094967225
 31
0.0
1001
AcDbBlockRepETag
1070
     1
1071
       23
1005
3614
  0
LINE
  5
3615
330
35FB
100
AcDbEntity
  8
D-DCR-HCH
370
     0
100
AcDbLine
 10
4969.467434719149
 20
3802.351638423265
 30
0.0
 11
4969.467434719149
 21
3802.351638423265
 31
0.0
1001
AcDbBlockRepETag
1070
     1
1071
       24
1005
3615
  0
LINE
  5
3616
330
35FB
100
AcDbEntity
  8
D-DCR-HCH
370
     0
100
AcDbLine
 10
5057.855782367444
 20
3758.15746459913
 30
0.0
 11
5041.282967183408
 21
3774.730279783165
 31
0.0
1001
AcDbBlockRepETag
1070
     1
1071
       25
1005
3616
  0
LINE
  5
3617
330
35FB
100
AcDbEntity
  8
D-DCR-HCH
370
     0
100
AcDbLine
 10
5030.234423727368
 20
3785.778823239205
 30
0.0
 11
5030.234423727368
 21
3785.778823239205
 31
0.0
1001
AcDbBlockRepETag
1070
     1
1071
       26
1005
3617
  0
LINE
  5
3618
330
35FB
100
AcDbEntity
  8
D-DCR-HCH
370
     0
100
AcDbLine
 10
5019.185880271329
 20
3796.827366695245
 30
0.0
 11
5007.855782367444
 21
3808.15746459913
 31
0.0
1001
AcDbBlockRepETag
1070
     1
1071
       27
1005
3618
  0
LINE
  5
3619
330
35FB
100
AcDbEntity
  8
D-DCR-HCH
370
     0
100
AcDbLine
 10
5102.049956191628
 20
3758.157464599105
 30
0.0
 11
5102.049956191628
 21
3758.157464599105
 31
0.0
1001
AcDbBlockRepETag
1070
     1
1071
       28
1005
3619
  0
LINE
  5
361A
330
35FB
100
AcDbEntity
  8
D-DCR-HCH
370
     0
100
AcDbLine
 10
5091.001412735587
 20
3769.206008055146
 30
0.0
 11
5091.001412735587
 21
3769.206008055146
 31
0.0
1001
AcDbBlockRepETag
1070
     1
1071
       29
1005
361A
  0
LINE
  5
361B
330
35FB
100
AcDbEntity
  8
D-DCR-HCH
370
     0
100
AcDbLine
 10
5079.952869279547
 20
3780.254551511185
 30
0.0
 11
5052.049956191603
 21
3808.15746459913
 31
0.0
1001
AcDbBlockRepETag
1070
     1
1071
       30
1005
361B
  0
LINE
  5
361C
330
35FB
100
AcDbEntity
  8
D-DCR-HCH
370
     0
100
AcDbLine
 10
5140.719858287766
 20
3763.681736327125
 30
0.0
 11
5096.244130015762
 21
3808.15746459913
 31
0.0
1001
AcDbBlockRepETag
1070
     1
1071
       31
1005
361C
  0
LINE
  5
361D
330
35FB
100
AcDbEntity
  8
D-DCR-HCH
370
     0
100
AcDbLine
 10
5190.438303839921
 20
3758.157464599129
 30
0.0
 11
5146.244130015786
 21
3802.351638423265
 31
0.0
1001
AcDbBlockRepETag
1070
     1
1071
       32
1005
361D
  0
LINE
  5
361E
330
35FB
100
AcDbEntity
  8
D-DCR-HCH
370
     0
100
AcDbLine
 10
5234.632477664081
 20
3758.157464599129
 30
0.0
 11
5207.011119024005
 21
3785.778823239205
 31
0.0
1001
AcDbBlockRepETag
1070
     1
1071
       33
1005
361E
  0
LINE
  5
361F
330
35FB
100
AcDbEntity
  8
D-DCR-HCH
370
     0
100
AcDbLine
 10
5195.962575567965
 20
3796.827366695245
 30
0.0
 11
5195.962575567965
 21
3796.827366695245
 31
0.0
1001
AcDbBlockRepETag
1070
     1
1071
       34
1005
361F
  0
LINE
  5
3620
330
35FB
100
AcDbEntity
  8
D-DCR-HCH
370
     0
100
AcDbLine
 10
5184.914032111927
 20
3807.875910151284
 30
0.0
 11
5184.632477664081
 21
3808.15746459913
 31
0.0
1001
AcDbBlockRepETag
1070
     1
1071
       35
1005
3620
  0
LINE
  5
3621
330
35FB
100
AcDbEntity
  8
D-DCR-HCH
370
     0
100
AcDbLine
 10
5278.826651488239
 20
3758.15746459913
 30
0.0
 11
5267.778108032225
 21
3769.206008055146
 31
0.0
1001
AcDbBlockRepETag
1070
     1
1071
       36
1005
3621
  0
LINE
  5
3622
330
35FB
100
AcDbEntity
  8
D-DCR-HCH
370
     0
100
AcDbLine
 10
5256.729564576184
 20
3780.254551511185
 30
0.0
 11
5256.729564576184
 21
3780.254551511185
 31
0.0
1001
AcDbBlockRepETag
1070
     1
1071
       37
1005
3622
  0
LINE
  5
3623
330
35FB
100
AcDbEntity
  8
D-DCR-HCH
370
     0
100
AcDbLine
 10
5245.681021120145
 20
3791.303094967225
 30
0.0
 11
5228.826651488239
 21
3808.15746459913
 31
0.0
1001
AcDbBlockRepETag
1070
     1
1071
       38
1005
3623
  0
LINE
  5
3624
330
35FB
100
AcDbEntity
  8
D-DCR-HCH
370
     0
100
AcDbLine
 10
5317.496553584404
 20
3763.681736327125
 30
0.0
 11
5317.496553584404
 21
3763.681736327125
 31
0.0
1001
AcDbBlockRepETag
1070
     1
1071
       39
1005
3624
  0
LINE
  5
3625
330
35FB
100
AcDbEntity
  8
D-DCR-HCH
370
     0
100
AcDbLine
 10
5306.448010128364
 20
3774.730279783165
 30
0.0
 11
5273.0208253124
 21
3808.15746459913
 31
0.0
1001
AcDbBlockRepETag
1070
     1
1071
       40
1005
3625
  0
LINE
  5
3626
330
35FB
100
AcDbEntity
  8
D-DCR-HCH
370
     0
100
AcDbLine
 10
5367.214999136559
 20
3758.15746459913
 30
0.0
 11
5317.214999136558
 21
3808.15746459913
 31
0.0
1001
AcDbBlockRepETag
1070
     1
1071
       41
1005
3626
  0
LINE
  5
3627
330
35FB
100
AcDbEntity
  8
D-DCR-HCH
370
     0
100
AcDbLine
 10
5361.690727408562
 20
3807.875910151284
 30
0.0
 11
5361.690727408562
 21
3807.875910151284
 31
0.0
1001
AcDbBlockRepETag
1070
     1
1071
       42
1005
3627
  0
LINE
  5
3628
330
35FB
100
AcDbEntity
  8
D-DCR-HCH
370
     0
100
AcDbLine
 10
5367.215069535361
 20
3758.157464599105
 30
0.0
 11
5367.214999136582
 21
3758.157534997885
 31
0.0
1001
AcDbBlockRepETag
1070
     1
1071
       43
1005
3628
  0
LINE
  5
3629
330
35FB
100
AcDbEntity
  8
D-DCR-HCH
370
     0
100
AcDbLine
 10
5411.409243359496
 20
3758.157464599129
 30
0.0
 11
5372.739341263382
 21
3796.827366695245
 31
0.0
1001
AcDbBlockRepETag
1070
     1
1071
       44
1005
3629
  0
LINE
  5
362A
330
35FB
100
AcDbEntity
  8
D-DCR-HCH
370
     0
100
AcDbLine
 10
5455.603417183657
 20
3758.157464599128
 30
0.0
 11
5433.506330271601
 21
3780.254551511185
 31
0.0
1001
AcDbBlockRepETag
1070
     1
1071
       45
1005
362A
  0
LINE
  5
362B
330
35FB
100
AcDbEntity
  8
D-DCR-HCH
370
     0
100
AcDbLine
 10
5422.457786815561
 20
3791.303094967225
 30
0.0
 11
5422.457786815561
 21
3791.303094967225
 31
0.0
1001
AcDbBlockRepETag
1070
     1
1071
       46
1005
362B
  0
LINE
  5
362C
330
35FB
100
AcDbEntity
  8
D-DCR-HCH
370
     0
100
AcDbLine
 10
5411.409243359521
 20
3802.351638423265
 30
0.0
 11
5405.603417183657
 21
3808.157464599128
 31
0.0
1001
AcDbBlockRepETag
1070
     1
1071
       47
1005
362C
  0
LINE
  5
362D
330
35FB
100
AcDbEntity
  8
D-DCR-HCH
370
     0
100
AcDbLine
 10
5499.797591007815
 20
3758.15746459913
 30
0.0
 11
5494.27331927982
 21
3763.681736327126
 31
0.0
1001
AcDbBlockRepETag
1070
     1
1071
       48
1005
362D
  0
LINE
  5
362E
330
35FB
100
AcDbEntity
  8
D-DCR-HCH
370
     0
100
AcDbLine
 10
5483.224775823779
 20
3774.730279783165
 30
0.0
 11
5483.224775823779
 21
3774.730279783165
 31
0.0
1001
AcDbBlockRepETag
1070
     1
1071
       49
1005
362E
  0
LINE
  5
362F
330
35FB
100
AcDbEntity
  8
D-DCR-HCH
370
     0
100
AcDbLine
 10
5472.176232367739
 20
3785.778823239205
 30
0.0
 11
5449.797591007817
 21
3808.157464599129
 31
0.0
1001
AcDbBlockRepETag
1070
     1
1071
       50
1005
362F
  0
LINE
  5
3630
330
35FB
100
AcDbEntity
  8
D-DCR-HCH
370
     0
100
AcDbLine
 10
5543.991764831999
 20
3758.157464599105
 30
0.0
 11
5543.991764831999
 21
3758.157464599105
 31
0.0
1001
AcDbBlockRepETag
1070
     1
1071
       51
1005
3630
  0
LINE
  5
3631
330
35FB
100
AcDbEntity
  8
D-DCR-HCH
370
     0
100
AcDbLine
 10
5532.943221375958
 20
3769.206008055146
 30
0.0
 11
5493.991764831975
 21
3808.157464599128
 31
0.0
1001
AcDbBlockRepETag
1070
     1
1071
       52
1005
3631
  0
LINE
  5
3632
330
35FB
100
AcDbEntity
  8
D-DCR-HCH
370
     0
100
AcDbLine
 10
5549.134889962151
 20
3797.208513293112
 30
0.0
 11
5538.467493103979
 21
3807.875910151284
 31
0.0
1001
AcDbBlockRepETag
1070
     1
1071
       53
1005
3632
  0
ENDBLK
  5
3633
330
35FB
100
AcDbEntity
  8
0
100
AcDbBlockEnd
  0
BLOCK
  5
3751
330
3750
100
AcDbEntity
  8
0
100
AcDbBlockBegin
  2
_OPEN30
 70
     0
 10
0.0
 20
0.0
 30
0.0
  3
_OPEN30
  1

  0
LINE
  5
3752
330
3750
100
AcDbEntity
  8
0
  6
ByBlock
 62
     0
370
    -2
100
AcDbLine
 10
-1.0
 20
0.267949
 30
0.0
 11
0.0
 21
0.0
 31
0.0
  0
LINE
  5
3753
330
3750
100
AcDbEntity
  8
0
  6
ByBlock
 62
     0
370
    -2
100
AcDbLine
 10
0.0
 20
0.0
 30
0.0
 11
-1.0
 21
-0.267949
 31
0.0
  0
LINE
  5
3754
330
3750
100
AcDbEntity
  8
0
  6
ByBlock
 62
     0
370
    -2
100
AcDbLine
 10
0.0
 20
0.0
 30
0.0
 11
-1.0
 21
0.0
 31
0.0
  0
ENDBLK
  5
3755
330
3750
100
AcDbEntity
  8
0
100
AcDbBlockEnd
  0
BLOCK
  5
4344
330
4343
100
AcDbEntity
  8
0
100
AcDbBlockBegin
  2
HATCH6
 70
     0
 10
0.0
 20
0.0
 30
0.0
  3
HATCH6
  1

  0
LINE
  5
4345
330
4343
100
AcDbEntity
  8
D-DCR-HCH
100
AcDbLine
 10
4548.62838702404
 20
4946.815613533332
 30
0.0
 11
4556.232600655856
 21
4954.419827165148
 31
0.0
  0
LINE
  5
4346
330
4343
100
AcDbEntity
  8
D-DCR-HCH
100
AcDbLine
 10
4570.42677448001
 20
4924.419827165143
 30
0.0
 11
4600.426774480015
 21
4954.419827165148
 31
0.0
  0
LINE
  5
4347
330
4343
100
AcDbEntity
  8
D-DCR-HCH
100
AcDbLine
 10
4614.620948304169
 20
4924.419827165144
 30
0.0
 11
4644.620948304174
 21
4954.419827165147
 31
0.0
  0
LINE
  5
4348
330
4343
100
AcDbEntity
  8
D-DCR-HCH
100
AcDbLine
 10
4658.815122128328
 20
4924.419827165143
 30
0.0
 11
4688.815122128333
 21
4954.419827165148
 31
0.0
  0
LINE
  5
4349
330
4343
100
AcDbEntity
  8
D-DCR-HCH
100
AcDbLine
 10
4703.009295952488
 20
4924.419827165144
 30
0.0
 11
4733.00929595249
 21
4954.419827165146
 31
0.0
  0
LINE
  5
434A
330
4343
100
AcDbEntity
  8
D-DCR-HCH
100
AcDbLine
 10
4747.203469776648
 20
4924.419827165144
 30
0.0
 11
4777.20346977665
 21
4954.419827165147
 31
0.0
  0
LINE
  5
434B
330
4343
100
AcDbEntity
  8
D-DCR-HCH
100
AcDbLine
 10
4791.397643600807
 20
4924.419827165144
 30
0.0
 11
4821.397643600811
 21
4954.419827165147
 31
0.0
  0
LINE
  5
434C
330
4343
100
AcDbEntity
  8
D-DCR-HCH
100
AcDbLine
 10
4835.591817424967
 20
4924.419827165145
 30
0.0
 11
4865.591817424969
 21
4954.419827165147
 31
0.0
  0
LINE
  5
434D
330
4343
100
AcDbEntity
  8
D-DCR-HCH
100
AcDbLine
 10
4879.785941154418
 20
4924.419827165145
 30
0.0
 11
4909.785941154421
 21
4954.419827165148
 31
0.0
  0
LINE
  5
434E
330
4343
100
AcDbEntity
  8
D-DCR-HCH
100
AcDbLine
 10
4923.980114978577
 20
4924.419827165145
 30
0.0
 11
4953.980114978578
 21
4954.419827165146
 31
0.0
  0
LINE
  5
434F
330
4343
100
AcDbEntity
  8
D-DCR-HCH
100
AcDbLine
 10
4968.174288802737
 20
4924.419827165146
 30
0.0
 11
4998.174288802738
 21
4954.419827165147
 31
0.0
  0
LINE
  5
4350
330
4343
100
AcDbEntity
  8
D-DCR-HCH
100
AcDbLine
 10
5012.368462626896
 20
4924.419827165145
 30
0.0
 11
5042.368462626898
 21
4954.419827165147
 31
0.0
  0
LINE
  5
4351
330
4343
100
AcDbEntity
  8
D-DCR-HCH
100
AcDbLine
 10
5056.562636451055
 20
4924.419827165146
 30
0.0
 11
5086.562636451057
 21
4954.419827165147
 31
0.0
  0
LINE
  5
4352
330
4343
100
AcDbEntity
  8
D-DCR-HCH
100
AcDbLine
 10
5100.756810275215
 20
4924.419827165146
 30
0.0
 11
5130.756810275215
 21
4954.419827165146
 31
0.0
  0
LINE
  5
4353
330
4343
100
AcDbEntity
  8
D-DCR-HCH
100
AcDbLine
 10
5144.950984099374
 20
4924.419827165146
 30
0.0
 11
5174.950984099374
 21
4954.419827165146
 31
0.0
  0
LINE
  5
4354
330
4343
100
AcDbEntity
  8
D-DCR-HCH
100
AcDbLine
 10
5189.145157923533
 20
4924.419827165146
 30
0.0
 11
5219.145157923534
 21
4954.419827165147
 31
0.0
  0
LINE
  5
4355
330
4343
100
AcDbEntity
  8
D-DCR-HCH
100
AcDbLine
 10
5233.339331747694
 20
4924.419827165147
 30
0.0
 11
5263.339331747693
 21
4954.419827165145
 31
0.0
  0
LINE
  5
4356
330
4343
100
AcDbEntity
  8
D-DCR-HCH
100
AcDbLine
 10
5277.533505571853
 20
4924.419827165147
 30
0.0
 11
5307.533505571851
 21
4954.419827165146
 31
0.0
  0
LINE
  5
4357
330
4343
100
AcDbEntity
  8
D-DCR-HCH
100
AcDbLine
 10
5321.72767939601
 20
4924.419827165146
 30
0.0
 11
5351.72767939601
 21
4954.419827165146
 31
0.0
  0
LINE
  5
4358
330
4343
100
AcDbEntity
  8
D-DCR-HCH
100
AcDbLine
 10
5365.921853220172
 20
4924.419827165147
 30
0.0
 11
5395.92185322017
 21
4954.419827165146
 31
0.0
  0
LINE
  5
4359
330
4343
100
AcDbEntity
  8
D-DCR-HCH
100
AcDbLine
 10
5410.116027044331
 20
4924.419827165147
 30
0.0
 11
5440.116027044329
 21
4954.419827165146
 31
0.0
  0
LINE
  5
435A
330
4343
100
AcDbEntity
  8
D-DCR-HCH
100
AcDbLine
 10
5454.310200868491
 20
4924.419827165147
 30
0.0
 11
5484.310200868489
 21
4954.419827165146
 31
0.0
  0
LINE
  5
435B
330
4343
100
AcDbEntity
  8
D-DCR-HCH
100
AcDbLine
 10
5498.504374692649
 20
4924.419827165147
 30
0.0
 11
5528.504374692648
 21
4954.419827165146
 31
0.0
  0
LINE
  5
435C
330
4343
100
AcDbEntity
  8
D-DCR-HCH
100
AcDbLine
 10
5542.69854851681
 20
4924.419827165148
 30
0.0
 11
5572.698548516806
 21
4954.419827165145
 31
0.0
  0
LINE
  5
435D
330
4343
100
AcDbEntity
  8
D-DCR-HCH
100
AcDbLine
 10
5586.892722340968
 20
4924.419827165148
 30
0.0
 11
5593.43315990677
 21
4930.960264730948
 31
0.0
  0
ENDBLK
  5
435E
330
4343
100
AcDbEntity
  8
0
100
AcDbBlockEnd
  0
BLOCK
  5
44D2
330
44D1
100
AcDbEntity
  8
0
100
AcDbBlockBegin
  2
HATCH7
 70
     0
 10
0.0
 20
0.0
 30
0.0
  3
HATCH7
  1

  0
LINE
  5
44D3
330
44D1
100
AcDbEntity
  8
D-DCR-HCH
100
AcDbLine
 10
6272.342568544964
 20
4922.577380957133
 30
0.0
 11
6303.330611624661
 21
4953.565424036831
 31
0.0
  0
LINE
  5
44D4
330
44D1
100
AcDbEntity
  8
D-DCR-HCH
100
AcDbLine
 10
6297.524785448822
 20
4903.565424036831
 30
0.0
 11
6347.524785448821
 21
4953.56542403683
 31
0.0
  0
LINE
  5
44D5
330
44D1
100
AcDbEntity
  8
D-DCR-HCH
100
AcDbLine
 10
6341.718959272981
 20
4903.565424036832
 30
0.0
 11
6391.71895927298
 21
4953.565424036831
 31
0.0
  0
LINE
  5
44D6
330
44D1
100
AcDbEntity
  8
D-DCR-HCH
100
AcDbLine
 10
6385.91313309714
 20
4903.56542403683
 30
0.0
 11
6435.91313309714
 21
4953.565424036831
 31
0.0
  0
LINE
  5
44D7
330
44D1
100
AcDbEntity
  8
D-DCR-HCH
100
AcDbLine
 10
6430.1073069213
 20
4903.565424036832
 30
0.0
 11
6480.107306921299
 21
4953.56542403683
 31
0.0
  0
LINE
  5
44D8
330
44D1
100
AcDbEntity
  8
D-DCR-HCH
100
AcDbLine
 10
6474.301480745457
 20
4903.56542403683
 30
0.0
 11
6524.301480745457
 21
4953.565424036831
 31
0.0
  0
LINE
  5
44D9
330
44D1
100
AcDbEntity
  8
D-DCR-HCH
100
AcDbLine
 10
6518.495654569616
 20
4903.565424036829
 30
0.0
 11
6568.495654569616
 21
4953.56542403683
 31
0.0
  0
LINE
  5
44DA
330
44D1
100
AcDbEntity
  8
D-DCR-HCH
100
AcDbLine
 10
6562.689828393776
 20
4903.56542403683
 30
0.0
 11
6606.88395212322
 21
4947.759547766274
 31
0.0
  0
LINE
  5
44DB
330
44D1
100
AcDbEntity
  8
D-DCR-HCH
100
AcDbLine
 10
6606.88395212322
 20
4947.759597860983
 30
0.0
 11
6612.689778299068
 21
4953.565424036831
 31
0.0
  0
LINE
  5
44DC
330
44D1
100
AcDbEntity
  8
D-DCR-HCH
100
AcDbLine
 10
6606.883952123226
 20
4903.565424036829
 30
0.0
 11
6656.883952123226
 21
4953.56542403683
 31
0.0
  0
LINE
  5
44DD
330
44D1
100
AcDbEntity
  8
D-DCR-HCH
100
AcDbLine
 10
6651.078125947383
 20
4903.565424036829
 30
0.0
 11
6701.078125947384
 21
4953.565424036829
 31
0.0
  0
LINE
  5
44DE
330
44D1
100
AcDbEntity
  8
D-DCR-HCH
100
AcDbLine
 10
6695.272299771545
 20
4903.565424036829
 30
0.0
 11
6745.272299771545
 21
4953.56542403683
 31
0.0
  0
LINE
  5
44DF
330
44D1
100
AcDbEntity
  8
D-DCR-HCH
100
AcDbLine
 10
6739.466473595702
 20
4903.565424036829
 30
0.0
 11
6789.466473595703
 21
4953.565424036829
 31
0.0
  0
LINE
  5
44E0
330
44D1
100
AcDbEntity
  8
D-DCR-HCH
100
AcDbLine
 10
6783.660647419862
 20
4903.565424036829
 30
0.0
 11
6833.660647419863
 21
4953.565424036829
 31
0.0
  0
LINE
  5
44E1
330
44D1
100
AcDbEntity
  8
D-DCR-HCH
100
AcDbLine
 10
6827.85482124402
 20
4903.565424036828
 30
0.0
 11
6877.854821244022
 21
4953.56542403683
 31
0.0
  0
LINE
  5
44E2
330
44D1
100
AcDbEntity
  8
D-DCR-HCH
100
AcDbLine
 10
6872.048995068179
 20
4903.565424036828
 30
0.0
 11
6922.048995068181
 21
4953.565424036829
 31
0.0
  0
LINE
  5
44E3
330
44D1
100
AcDbEntity
  8
D-DCR-HCH
100
AcDbLine
 10
6916.243168892338
 20
4903.565424036828
 30
0.0
 11
6966.243168892341
 21
4953.565424036829
 31
0.0
  0
LINE
  5
44E4
330
44D1
100
AcDbEntity
  8
D-DCR-HCH
100
AcDbLine
 10
6960.437342716496
 20
4903.565424036828
 30
0.0
 11
7010.437342716499
 21
4953.565424036829
 31
0.0
  0
LINE
  5
44E5
330
44D1
100
AcDbEntity
  8
D-DCR-HCH
100
AcDbLine
 10
7004.631516540657
 20
4903.565424036828
 30
0.0
 11
7054.631516540658
 21
4953.565424036829
 31
0.0
  0
LINE
  5
44E6
330
44D1
100
AcDbEntity
  8
D-DCR-HCH
100
AcDbLine
 10
7048.825690364815
 20
4903.565424036828
 30
0.0
 11
7098.825690364816
 21
4953.565424036829
 31
0.0
  0
LINE
  5
44E7
330
44D1
100
AcDbEntity
  8
D-DCR-HCH
100
AcDbLine
 10
7093.019864188973
 20
4903.565424036826
 30
0.0
 11
7143.019864188976
 21
4953.565424036829
 31
0.0
  0
LINE
  5
44E8
330
44D1
100
AcDbEntity
  8
D-DCR-HCH
100
AcDbLine
 10
7137.214038013134
 20
4903.565424036828
 30
0.0
 11
7187.214038013135
 21
4953.565424036829
 31
0.0
  0
LINE
  5
44E9
330
44D1
100
AcDbEntity
  8
D-DCR-HCH
100
AcDbLine
 10
7181.408211837292
 20
4903.565424036826
 30
0.0
 11
7231.408211837296
 21
4953.565424036829
 31
0.0
  0
LINE
  5
44EA
330
44D1
100
AcDbEntity
  8
D-DCR-HCH
100
AcDbLine
 10
7225.602385661451
 20
4903.565424036826
 30
0.0
 11
7275.602385661454
 21
4953.565424036829
 31
0.0
  0
LINE
  5
44EB
330
44D1
100
AcDbEntity
  8
D-DCR-HCH
100
AcDbLine
 10
7269.796559485609
 20
4903.565424036826
 30
0.0
 11
7319.796559485612
 21
4953.565424036828
 31
0.0
  0
LINE
  5
44EC
330
44D1
100
AcDbEntity
  8
D-DCR-HCH
100
AcDbLine
 10
7313.990733309769
 20
4903.565424036826
 30
0.0
 11
7319.542961536771
 21
4909.117652263828
 31
0.0
  0
ENDBLK
  5
44ED
330
44D1
100
AcDbEntity
  8
0
100
AcDbBlockEnd
  0
BLOCK
  5
5ED7
330
5E9E
100
AcDbEntity
  8
05鉄筋
100
AcDbBlockBegin
  2
G$CF45257B7
 70
     0
 10
0.0
 20
0.0
 30
0.0
  3
G$CF45257B7
  1
Acad:XRef
  0
LINE
  5
5ED5
330
5E9E
100
AcDbEntity
  8
05鉄筋
100
AcDbLine
 10
0.0
 20
0.0
 30
0.0
 11
187.8297101099524
 21
375.6594202199776
 31
0.0
  0
LINE
  5
5ED6
330
5E9E
100
AcDbEntity
  8
05鉄筋
100
AcDbLine
 10
0.0
 20
0.0
 30
0.0
 11
187.8297101099524
 21
375.6594202199776
 31
0.0
  0
ENDBLK
  5
5ED8
330
5E9E
100
AcDbEntity
  8
05鉄筋
100
AcDbBlockEnd
  0
ENDSEC
  0
SECTION
  2
ENTITIES
  0
LINE
  5
3694
330
1F
100
AcDbEntity
  8
02メイン楮図
100
AcDbLine
 10
2251.092471682568
 20
4026.933563808148
 30
0.0
 11
3466.091990386845
 21
4026.933563808152
 31
0.0
  0
LEADER
  5
3695
330
1F
100
AcDbEntity
  8
99注釈、説明
100
AcDbLeader
  3
Vnas_Gothic
 71
     0
 76
     3
 10
2803.759162591217
 20
3953.767126998197
 30
0.0
 10
2803.759162591217
 20
3548.923019277814
 30
0.0
 10
3897.53230891081
 20
3548.923019277814
 30
0.0
1001
ACAD
1000
DSTYLE
1002
{
1070
   140
1040
1.75
1070
   144
1040
1.0
1070
   147
1040
0.25
1070
    77
1070
     0
1070
    78
1070
     1
1070
   271
1070
     3
1002
}
  0
LWPOLYLINE
  5
3696
330
1F
100
AcDbEntity
  8
99注釈、説明
  6
Continuous
100
AcDbPolyline
 90
        3
 70
     0
 43
0.0
 10
2807.092495924553
 20
3933.767126998197
 10
2803.759162591217
 20
3953.767126998197
 10
2800.425829257885
 20
3933.767126998197
  0
LEADER
  5
3697
330
1F
100
AcDbEntity
  8
99注釈、説明
100
AcDbLeader
  3
Vnas_Gothic
 71
     0
 76
     3
 10
2846.033685465496
 20
4009.3740166187
 30
0.0
 10
2846.033685465496
 20
3616.513453519148
 30
0.0
 10
3897.53230891081
 20
3616.513453519148
 30
0.0
1001
ACAD
1000
DSTYLE
1002
{
1070
   140
1040
1.75
1070
   144
1040
1.0
1070
   147
1040
0.25
1070
    77
1070
     0
1070
    78
1070
     1
1070
   271
1070
     3
1002
}
  0
LWPOLYLINE
  5
3698
330
1F
100
AcDbEntity
  8
99注釈、説明
  6
Continuous
100
AcDbPolyline
 90
        3
 70
     0
 43
0.0
 10
2849.367018798828
 20
3989.3740166187
 10
2846.033685465496
 20
4009.3740166187
 10
2842.700352132164
 20
3989.3740166187
  0
MTEXT
  5
369A
330
1F
100
AcDbEntity
  8
99注釈、説明
  6
Continuous
100
AcDbMText
 10
3674.530915259049
 20
3657.332715927596
 30
0.0
 40
35.0
 41
612.5
 71
     1
 72
     1
  1
\A1;\W1.00;\T1.00;\Q0.00;t = 5cm
  7
YOKO_GOTHIC
 73
     2
 44
0.7714285714285714
  0
MTEXT
  5
369B
330
1F
100
AcDbEntity
  8
99注釈、説明
  6
Continuous
100
AcDbMText
 10
2913.628069963637
 20
3490.968646590713
 30
0.0
 40
35.0
 41
700.0
 71
     1
 72
     1
  1
\A1;路　　盤
  7
YOKO_GOTHIC
 73
     2
 44
0.7714285714285714
  0
LINE
  5
369C
330
1F
100
AcDbEntity
  8
02メイン楮図
100
AcDbLine
 10
2251.092471682565
 20
3976.933563808148
 30
0.0
 11
3450.858230152895
 21
3976.933563808207
 31
0.0
  0
LINE
  5
369D
330
1F
100
AcDbEntity
  8
02メイン楮図
100
AcDbLine
 10
2251.092471682565
 20
3926.933563808148
 30
0.0
 11
3464.718086917193
 21
3926.933563808148
 31
0.0
  0
LEADER
  5
369E
330
1F
100
AcDbEntity
  8
99注釈、説明
100
AcDbLeader
  3
Vnas_Gothic
 71
     0
 76
     3
 10
2761.484639716953
 20
3875.970715820333
 30
0.0
 10
2761.484639716953
 20
3399.13322717558
 30
0.0
 10
3926.972867536326
 20
3399.13322717558
 30
0.0
1001
ACAD
1000
DSTYLE
1002
{
1070
   140
1040
1.75
1070
   144
1040
1.0
1070
   147
1040
0.25
1070
    77
1070
     0
1070
    78
1070
     1
1070
   271
1070
     3
1002
}
  0
LWPOLYLINE
  5
369F
330
1F
100
AcDbEntity
  8
99注釈、説明
  6
Continuous
100
AcDbPolyline
 90
        3
 70
     0
 43
0.0
 10
2764.817973050285
 20
3855.970715820333
 10
2761.484639716953
 20
3875.970715820333
 10
2758.151306383617
 20
3855.970715820333
  0
MTEXT
  5
36A0
330
1F
100
AcDbEntity
  8
99注釈、説明
  6
Continuous
100
AcDbMText
 10
2919.474920123801
 20
3589.742281686262
 30
0.0
 40
35.0
 41
2625.0
 71
     1
 72
     1
  1
\A1;基　　層（再生粗粒度アスコン(20)）
  7
YOKO_GOTHIC
 73
     2
 44
0.7714285714285714
1001
AcadAnnotative
1000
AnnotativeData
1002
{
1070
     1
1070
     0
1002
}
  0
MTEXT
  5
36A1
330
1F
100
AcDbEntity
  8
99注釈、説明
  6
Continuous
100
AcDbMText
 10
3671.85668521031
 20
3589.742281686262
 30
0.0
 40
35.0
 41
612.5
 71
     1
 72
     1
  1
\A1;\W1.00;\T1.00;\Q0.00;t = 5cm
  7
YOKO_GOTHIC
 73
     2
 44
0.7714285714285714
  0
MTEXT
  5
36A3
102
{ACAD_XDICTIONARY
360
635D
102
}
330
1F
100
AcDbEntity
  8
99注釈、説明
  6
Continuous
100
AcDbMText
 10
3671.362144988478
 20
3509.377241014505
 30
0.0
 40
35.0
 41
3412.5
 71
     1
 72
     1
  1
{\A1;t =10cm×２層仕上げ}
  7
YOKO_GOTHIC
 73
     2
 44
0.7714285714285714
1001
AcadAnnotative
1000
AnnotativeData
1002
{
1070
     1
1070
     0
1002
}
  0
INSERT
  5
36A4
330
1F
100
AcDbEntity
  8
02メイン楮図
100
AcDbBlockReference
  2
HATCH4
 10
-2171.749304849538
 20
164.8781991022424
 30
0.0
  0
INSERT
  5
36A5
330
1F
100
AcDbEntity
  8
02メイン楮図
100
AcDbBlockReference
  2
HATCH5
 10
-2187.340905276644
 20
168.776099209017
 30
0.0
  0
MTEXT
  5
36A6
330
1F
100
AcDbEntity
  8
99注釈、説明
  6
Continuous
100
AcDbMText
 10
2297.444050703565
 20
3571.49061806395
 30
0.0
 40
35.0
 41
1050.0
 71
     1
 72
     1
  1
\A1;プライムコート\P（１～２Ｌ／㎡）
  7
YOKO_GOTHIC
 73
     2
 44
0.7714285714285714
1001
AcadAnnotative
1000
AnnotativeData
1002
{
1070
     1
1070
     0
1002
}
  0
LINE
  5
36A7
330
1F
100
AcDbEntity
  8
99注釈、説明
100
AcDbLine
 10
2626.458621826983
 20
3590.122689915459
 30
0.0
 11
2292.157697707768
 21
3590.122689915459
 31
0.0
  0
LWPOLYLINE
  5
36A8
330
1F
100
AcDbEntity
  8
99注釈、説明
  6
Continuous
100
AcDbPolyline
 90
        3
 70
     0
 43
0.0
 10
2629.612284042993
 20
3956.938195949087
 10
2626.251275966224
 20
3976.933563808148
 10
2622.945623760232
 20
3956.92896997063
  0
LINE
  5
36A9
330
1F
100
AcDbEntity
  8
99注釈、説明
100
AcDbLine
 10
2668.945138137442
 20
3479.145750846854
 30
0.0
 11
2292.157697707768
 21
3479.145750846854
 31
0.0
  0
LWPOLYLINE
  5
36AA
330
1F
100
AcDbEntity
  8
99注釈、説明
  6
Continuous
100
AcDbPolyline
 90
        3
 70
     0
 43
0.0
 10
2672.100174934665
 20
3906.938195949087
 10
2668.7391668579
 20
3926.933563808148
 10
2665.433514651901
 20
3906.92896997063
  0
LINE
  5
36AB
330
1F
100
AcDbEntity
  8
99注釈、説明
100
AcDbLine
 10
2626.251275966231
 20
3976.933563808145
 30
0.0
 11
2626.458621826983
 21
3590.122689915459
 31
0.0
  0
LINE
  5
36AC
330
1F
100
AcDbEntity
  8
99注釈、説明
100
AcDbLine
 10
2668.7391668579
 20
3926.933563808145
 30
0.0
 11
2668.945138137442
 21
3479.145750846854
 31
0.0
  0
MTEXT
  5
36AD
330
1F
100
AcDbEntity
  8
99注釈、説明
  6
Continuous
100
AcDbMText
 10
2291.639918700086
 20
3678.305299217538
 30
0.0
 40
35.0
 41
1225.0
 71
     1
 72
     1
  1
\A1;タックコート\P（0.3～0.6L／㎡
  7
YOKO_GOTHIC
 73
     2
 44
0.7714285714285714
1001
AcadAnnotative
1000
AnnotativeData
1002
{
1070
     1
1070
     0
1002
}
  0
MTEXT
  5
36AE
330
1F
100
AcDbEntity
  8
99注釈、説明
  6
Continuous
100
AcDbMText
 10
2919.474920123801
 20
3657.332715927596
 30
0.0
 40
35.0
 41
2625.0
 71
     1
 72
     1
  1
\A1;表　　層（再生密粒度アスコン(13)）
  7
YOKO_GOTHIC
 73
     2
 44
0.7714285714285714
1001
AcadAnnotative
1000
AnnotativeData
1002
{
1070
     1
1070
     0
1002
}
  0
SPLINE
  5
36AF
330
1F
100
AcDbEntity
  8
02メイン楮図
100
AcDbSpline
210
0.0
220
0.0
230
1.0
 70
     8
 71
     3
 72
    10
 73
     6
 74
     4
 42
0.000000001
 43
0.0000000001
 44
0.000001
 40
0.0
 40
0.0
 40
0.0
 40
0.0
 40
159.4098355195312
 40
250.7115917859131
 40
328.5695056667728
 40
328.5695056667728
 40
328.5695056667728
 40
328.5695056667728
 10
3467.285907943617
 20
3721.846223220839
 30
0.0
 10
3488.876684080759
 20
3776.298468703987
 30
0.0
 10
3522.833543860577
 20
3861.938159904182
 30
0.0
 10
3434.357762567572
 20
3955.6104148379
 30
0.0
 10
3459.150821250676
 20
4011.389990081165
 30
0.0
 10
3470.562146300374
 20
4037.063256958545
 30
0.0
 11
3467.285907943617
 21
3721.846223220839
 31
0.0
 11
3491.037075641445
 21
3879.476733540791
 31
0.0
 11
3451.229903741001
 21
3961.643636172304
 31
0.0
 11
3470.562146300374
 21
4037.063256958545
 31
0.0
  0
LINE
  5
36B1
330
1F
100
AcDbEntity
  8
02メイン楮図
100
AcDbLine
 10
2251.092471682565
 20
3727.063256958545
 30
0.0
 11
3025.999274318248
 21
3727.063256958545
 31
0.0
  0
LWPOLYLINE
  5
36BE
330
1F
100
AcDbEntity
  8
02メイン楮図
100
AcDbPolyline
 90
       12
 70
     1
 43
0.0
 10
3372.978530655335
 20
3881.635515385426
 10
3383.14020582183
 20
3885.71926538542
 10
3388.221043132828
 20
3889.803015385422
 10
3390.761461788337
 20
3897.970515385425
 10
3390.761461788337
 20
3906.138015385421
 10
3388.221043132828
 20
3918.389265385425
 10
3383.14020582183
 20
3922.473015385427
 10
3380.599787166335
 20
3922.473015385427
 10
3370.438111999832
 20
3914.305515385424
 10
3365.357274688842
 20
3906.138015385421
 10
3365.357274688842
 20
3893.886765385423
 10
3367.897693344337
 20
3885.71926538542
  0
LWPOLYLINE
  5
36BF
330
1F
100
AcDbEntity
  8
02メイン楮図
100
AcDbPolyline
 90
       12
 70
     1
 43
0.0
 10
3398.382717922064
 20
3881.635515385426
 10
3408.544393088559
 20
3885.71926538542
 10
3413.625230399557
 20
3889.803015385422
 10
3416.165649055063
 20
3897.970515385425
 10
3416.165649055063
 20
3906.138015385421
 10
3413.625230399557
 20
3918.389265385425
 10
3408.544393088559
 20
3922.473015385427
 10
3406.003974433064
 20
3922.473015385427
 10
3395.842299266569
 20
3914.305515385424
 10
3390.761461955557
 20
3906.138015385421
 10
3390.761461955557
 20
3893.886765385423
 10
3393.301880611067
 20
3885.71926538542
  0
LWPOLYLINE
  5
36C0
330
1F
100
AcDbEntity
  8
02メイン楮図
100
AcDbPolyline
 90
       12
 70
     1
 43
0.0
 10
3423.786905188772
 20
3881.635515385426
 10
3433.948580355267
 20
3885.71926538542
 10
3439.029417666265
 20
3889.803015385422
 10
3441.569836321771
 20
3897.970515385425
 10
3441.569836321771
 20
3906.138015385421
 10
3439.029417666265
 20
3918.389265385425
 10
3433.948580355267
 20
3922.473015385427
 10
3431.408161699772
 20
3922.473015385427
 10
3421.246486533277
 20
3914.305515385424
 10
3416.165649222265
 20
3906.138015385421
 10
3416.165649222265
 20
3893.886765385423
 10
3418.706067877774
 20
3885.71926538542
  0
LWPOLYLINE
  5
36C1
330
1F
100
AcDbEntity
  8
02メイン楮図
100
AcDbPolyline
 90
       12
 70
     1
 43
0.0
 10
3449.19109245549
 20
3881.635515385426
 10
3459.352767621993
 20
3885.71926538542
 10
3464.433604932994
 20
3889.803015385422
 10
3466.974023588489
 20
3897.970515385425
 10
3466.974023588489
 20
3906.138015385421
 10
3464.433604932994
 20
3918.389265385425
 10
3459.352767621993
 20
3922.473015385427
 10
3456.812348966498
 20
3922.473015385427
 10
3446.650673799995
 20
3914.305515385424
 10
3441.569836489005
 20
3906.138015385421
 10
3441.569836489005
 20
3893.886765385423
 10
3444.1102551445
 20
3885.71926538542
  0
LWPOLYLINE
  5
36C3
330
1F
100
AcDbEntity
  8
02メイン楮図
100
AcDbPolyline
 90
       12
 70
     1
 43
0.0
 10
2262.275384981953
 20
3766.385267111122
 10
2272.437060148455
 20
3770.469017111123
 10
2277.517897459453
 20
3774.552767111118
 10
2280.058316114948
 20
3782.720267111121
 10
2280.058316114948
 20
3790.887767111124
 10
2277.517897459453
 20
3803.139017111118
 10
2272.437060148455
 20
3807.22276711112
 10
2269.896641492945
 20
3807.22276711112
 10
2259.734966326458
 20
3799.05526711112
 10
2254.654129015453
 20
3790.887767111124
 10
2254.654129015453
 20
3778.636517111119
 10
2257.194547670948
 20
3770.469017111123
  0
LWPOLYLINE
  5
36C4
330
1F
100
AcDbEntity
  8
02メイン楮図
100
AcDbPolyline
 90
       12
 70
     1
 43
0.0
 10
2287.679572248668
 20
3766.385267111122
 10
2297.84124741517
 20
3770.469017111123
 10
2302.92208472616
 20
3774.552767111118
 10
2305.462503381656
 20
3782.720267111121
 10
2305.462503381656
 20
3790.887767111124
 10
2302.92208472616
 20
3803.139017111118
 10
2297.84124741517
 20
3807.22276711112
 10
2295.300828759668
 20
3807.22276711112
 10
2285.139153593173
 20
3799.05526711112
 10
2280.058316282175
 20
3790.887767111124
 10
2280.058316282175
 20
3778.636517111119
 10
2282.59873493767
 20
3770.469017111123
  0
LWPOLYLINE
  5
36C5
330
1F
100
AcDbEntity
  8
02メイン楮図
100
AcDbPolyline
 90
       12
 70
     1
 43
0.0
 10
2313.083759515383
 20
3766.385267111122
 10
2323.245434681878
 20
3770.469017111123
 10
2328.326271992875
 20
3774.552767111118
 10
2330.866690648381
 20
3782.720267111121
 10
2330.866690648381
 20
3790.887767111124
 10
2328.326271992875
 20
3803.139017111118
 10
2323.245434681878
 20
3807.22276711112
 10
2320.705016026383
 20
3807.22276711112
 10
2310.54334085988
 20
3799.05526711112
 10
2305.46250354889
 20
3790.887767111124
 10
2305.46250354889
 20
3778.636517111119
 10
2308.002922204385
 20
3770.469017111123
  0
LWPOLYLINE
  5
36C6
330
1F
100
AcDbEntity
  8
02メイン楮図
100
AcDbPolyline
 90
       12
 70
     1
 43
0.0
 10
2338.487946782101
 20
3766.385267111122
 10
2348.649621948603
 20
3770.469017111123
 10
2353.730459259608
 20
3774.552767111118
 10
2356.270877915111
 20
3782.720267111121
 10
2356.270877915111
 20
3790.887767111124
 10
2353.730459259608
 20
3803.139017111118
 10
2348.649621948603
 20
3807.22276711112
 10
2346.109203293097
 20
3807.22276711112
 10
2335.947528126595
 20
3799.05526711112
 10
2330.866690815597
 20
3790.887767111124
 10
2330.866690815597
 20
3778.636517111119
 10
2333.4071094711
 20
3770.469017111123
  0
LWPOLYLINE
  5
36C7
330
1F
100
AcDbEntity
  8
02メイン楮図
100
AcDbPolyline
 90
       12
 70
     1
 43
0.0
 10
2274.141030967199
 20
3845.863745015688
 10
2284.302706133702
 20
3849.947495015682
 10
2289.383543444692
 20
3854.031245015683
 10
2291.923962100194
 20
3862.198745015687
 10
2291.923962100194
 20
3870.366245015683
 10
2289.383543444692
 20
3882.617495015684
 10
2284.302706133702
 20
3886.701245015689
 10
2281.762287478199
 20
3886.701245015689
 10
2271.600612311704
 20
3878.533745015686
 10
2266.519775000706
 20
3870.366245015683
 10
2266.519775000706
 20
3858.114995015685
 10
2269.060193656209
 20
3849.947495015682
  0
LWPOLYLINE
  5
36C8
330
1F
100
AcDbEntity
  8
02メイン楮図
100
AcDbPolyline
 90
       12
 70
     1
 43
0.0
 10
2299.545218233925
 20
3845.863745015688
 10
2309.706893400416
 20
3849.947495015682
 10
2314.787730711418
 20
3854.031245015683
 10
2317.328149366927
 20
3862.198745015687
 10
2317.328149366927
 20
3870.366245015683
 10
2314.787730711418
 20
3882.617495015684
 10
2309.706893400416
 20
3886.701245015689
 10
2307.166474744921
 20
3886.701245015689
 10
2297.00479957843
 20
3878.533745015686
 10
2291.923962267421
 20
3870.366245015683
 10
2291.923962267421
 20
3858.114995015685
 10
2294.464380922924
 20
3849.947495015682
  0
LWPOLYLINE
  5
36C9
330
1F
100
AcDbEntity
  8
02メイン楮図
100
AcDbPolyline
 90
       12
 70
     1
 43
0.0
 10
2324.949405500633
 20
3845.863745015688
 10
2335.111080667124
 20
3849.947495015682
 10
2340.191917978125
 20
3854.031245015683
 10
2342.732336633635
 20
3862.198745015687
 10
2342.732336633635
 20
3870.366245015683
 10
2340.191917978125
 20
3882.617495015684
 10
2335.111080667124
 20
3886.701245015689
 10
2332.570662011629
 20
3886.701245015689
 10
2322.408986845137
 20
3878.533745015686
 10
2317.328149534129
 20
3870.366245015683
 10
2317.328149534129
 20
3858.114995015685
 10
2319.868568189631
 20
3849.947495015682
  0
LWPOLYLINE
  5
36CA
330
1F
100
AcDbEntity
  8
02メイン楮図
100
AcDbPolyline
 90
       12
 70
     1
 43
0.0
 10
2350.353592767362
 20
3845.863745015688
 10
2360.515267933857
 20
3849.947495015682
 10
2365.596105244855
 20
3854.031245015683
 10
2368.13652390035
 20
3862.198745015687
 10
2368.13652390035
 20
3870.366245015683
 10
2365.596105244855
 20
3882.617495015684
 10
2360.515267933857
 20
3886.701245015689
 10
2357.974849278362
 20
3886.701245015689
 10
2347.813174111867
 20
3878.533745015686
 10
2342.732336800869
 20
3870.366245015683
 10
2342.732336800869
 20
3858.114995015685
 10
2345.272755456364
 20
3849.947495015682
  0
LWPOLYLINE
  5
36CB
330
1F
100
AcDbEntity
  8
02メイン楮図
100
AcDbPolyline
 90
       12
 70
     1
 43
0.0
 10
2271.491197963369
 20
3806.880378816482
 10
2281.652873129857
 20
3810.964128816484
 10
2286.733710440862
 20
3815.047878816486
 10
2289.274129096364
 20
3823.215378816485
 10
2289.274129096364
 20
3831.382878816477
 10
2286.733710440862
 20
3843.634128816482
 10
2281.652873129857
 20
3847.717878816484
 10
2279.112454474351
 20
3847.717878816484
 10
2268.950779307859
 20
3839.550378816481
 10
2263.869941996858
 20
3831.382878816477
 10
2263.869941996858
 20
3819.131628816483
 10
2266.410360652353
 20
3810.964128816484
  0
LWPOLYLINE
  5
36CC
330
1F
100
AcDbEntity
  8
02メイン楮図
100
AcDbPolyline
 90
       12
 70
     1
 43
0.0
 10
2296.895385230084
 20
3806.880378816482
 10
2307.057060396579
 20
3810.964128816484
 10
2312.137897707576
 20
3815.047878816486
 10
2314.678316363072
 20
3823.215378816485
 10
2314.678316363072
 20
3831.382878816477
 10
2312.137897707576
 20
3843.634128816482
 10
2307.057060396579
 20
3847.717878816484
 10
2304.516641741069
 20
3847.717878816484
 10
2294.354966574581
 20
3839.550378816481
 10
2289.274129263576
 20
3831.382878816477
 10
2289.274129263576
 20
3819.131628816483
 10
2291.814547919086
 20
3810.964128816484
  0
LWPOLYLINE
  5
36CD
330
1F
100
AcDbEntity
  8
02メイン楮図
100
AcDbPolyline
 90
       12
 70
     1
 43
0.0
 10
2322.299572496791
 20
3806.880378816482
 10
2332.461247663294
 20
3810.964128816484
 10
2337.542084974284
 20
3815.047878816486
 10
2340.082503629787
 20
3823.215378816485
 10
2340.082503629787
 20
3831.382878816477
 10
2337.542084974284
 20
3843.634128816482
 10
2332.461247663294
 20
3847.717878816484
 10
2329.920829007791
 20
3847.717878816484
 10
2319.759153841296
 20
3839.550378816481
 10
2314.678316530299
 20
3831.382878816477
 10
2314.678316530299
 20
3819.131628816483
 10
2317.218735185801
 20
3810.964128816484
  0
LWPOLYLINE
  5
36CE
330
1F
100
AcDbEntity
  8
02メイン楮図
100
AcDbPolyline
 90
       12
 70
     1
 43
0.0
 10
2347.703759763506
 20
3806.880378816482
 10
2357.865434930009
 20
3810.964128816484
 10
2362.94627224101
 20
3815.047878816486
 10
2365.48669089652
 20
3823.215378816485
 10
2365.48669089652
 20
3831.382878816477
 10
2362.94627224101
 20
3843.634128816482
 10
2357.865434930009
 20
3847.717878816484
 10
2355.325016274513
 20
3847.717878816484
 10
2345.163341108004
 20
3839.550378816481
 10
2340.082503797013
 20
3831.382878816477
 10
2340.082503797013
 20
3819.131628816483
 10
2342.622922452509
 20
3810.964128816484
  0
LWPOLYLINE
  5
36CF
330
1F
100
AcDbEntity
  8
02メイン楮図
100
AcDbPolyline
 90
       12
 70
     1
 43
0.0
 10
2267.94971550479
 20
3884.65584375147
 10
2278.111390671285
 20
3888.739593751465
 10
2283.192227982283
 20
3892.823343751466
 10
2285.732646637778
 20
3900.99084375147
 10
2285.732646637778
 20
3909.158343751466
 10
2283.192227982283
 20
3921.40959375147
 10
2278.111390671285
 20
3925.493343751472
 10
2275.570972015779
 20
3925.493343751472
 10
2265.409296849288
 20
3917.325843751469
 10
2260.328459538287
 20
3909.158343751466
 10
2260.328459538287
 20
3896.907093751468
 10
2262.868878193793
 20
3888.739593751465
  0
LWPOLYLINE
  5
36D0
330
1F
100
AcDbEntity
  8
02メイン楮図
100
AcDbPolyline
 90
       12
 70
     1
 43
0.0
 10
2293.353902771509
 20
3884.65584375147
 10
2303.515577938
 20
3888.739593751465
 10
2308.596415249001
 20
3892.823343751466
 10
2311.136833904508
 20
3900.99084375147
 10
2311.136833904508
 20
3909.158343751466
 10
2308.596415249001
 20
3921.40959375147
 10
2303.515577938
 20
3925.493343751472
 10
2300.975159282505
 20
3925.493343751472
 10
2290.813484116014
 20
3917.325843751469
 10
2285.732646805012
 20
3909.158343751466
 10
2285.732646805012
 20
3896.907093751468
 10
2288.273065460507
 20
3888.739593751465
  0
LWPOLYLINE
  5
36D1
330
1F
100
AcDbEntity
  8
02メイン楮図
100
AcDbPolyline
 90
       12
 70
     1
 43
0.0
 10
2318.758090038216
 20
3884.65584375147
 10
2328.919765204708
 20
3888.739593751465
 10
2334.000602515709
 20
3892.823343751466
 10
2336.541021171215
 20
3900.99084375147
 10
2336.541021171215
 20
3909.158343751466
 10
2334.000602515709
 20
3921.40959375147
 10
2328.919765204708
 20
3925.493343751472
 10
2326.379346549213
 20
3925.493343751472
 10
2316.217671382721
 20
3917.325843751469
 10
2311.13683407172
 20
3909.158343751466
 10
2311.13683407172
 20
3896.907093751468
 10
2313.677252727215
 20
3888.739593751465
  0
LWPOLYLINE
  5
36D2
330
1F
100
AcDbEntity
  8
02メイン楮図
100
AcDbPolyline
 90
       12
 70
     1
 43
0.0
 10
2344.162277304946
 20
3884.65584375147
 10
2354.323952471437
 20
3888.739593751465
 10
2359.404789782446
 20
3892.823343751466
 10
2361.945208437941
 20
3900.99084375147
 10
2361.945208437941
 20
3909.158343751466
 10
2359.404789782446
 20
3921.40959375147
 10
2354.323952471437
 20
3925.493343751472
 10
2351.783533815942
 20
3925.493343751472
 10
2341.621858649451
 20
3917.325843751469
 10
2336.541021338449
 20
3909.158343751466
 10
2336.541021338449
 20
3896.907093751468
 10
2339.081439993945
 20
3888.739593751465
  0
LWPOLYLINE
  5
3741
330
1F
100
AcDbEntity
  8
02メイン楮図
100
AcDbPolyline
 90
       12
 70
     1
 43
0.0
 10
2270.898896196071
 20
3731.943931444895
 10
2281.060571362574
 20
3736.027681444897
 10
2286.141408673564
 20
3740.111431444888
 10
2288.681827329059
 20
3748.278931444891
 10
2288.681827329059
 20
3756.446431444894
 10
2286.141408673564
 20
3768.697681444888
 10
2281.060571362574
 20
3772.78143144489
 10
2278.520152707071
 20
3772.78143144489
 10
2268.358477540576
 20
3764.61393144489
 10
2263.277640229579
 20
3756.446431444894
 10
2263.277640229579
 20
3744.195181444889
 10
2265.818058885074
 20
3736.027681444897
  0
LWPOLYLINE
  5
3742
330
1F
100
AcDbEntity
  8
02メイン楮図
100
AcDbPolyline
 90
       12
 70
     1
 43
0.0
 10
2296.303083462786
 20
3731.943931444895
 10
2306.464758629281
 20
3736.027681444897
 10
2311.545595940279
 20
3740.111431444888
 10
2314.086014595785
 20
3748.278931444891
 10
2314.086014595785
 20
3756.446431444894
 10
2311.545595940279
 20
3768.697681444888
 10
2306.464758629281
 20
3772.78143144489
 10
2303.924339973786
 20
3772.78143144489
 10
2293.762664807284
 20
3764.61393144489
 10
2288.681827496293
 20
3756.446431444894
 10
2288.681827496293
 20
3744.195181444889
 10
2291.222246151789
 20
3736.027681444897
  0
LWPOLYLINE
  5
3743
330
1F
100
AcDbEntity
  8
02メイン楮図
100
AcDbPolyline
 90
       12
 70
     1
 43
0.0
 10
2321.707270729505
 20
3731.943931444895
 10
2331.868945896007
 20
3736.027681444897
 10
2336.949783207012
 20
3740.111431444888
 10
2339.490201862514
 20
3748.278931444891
 10
2339.490201862514
 20
3756.446431444894
 10
2336.949783207012
 20
3768.697681444888
 10
2331.868945896007
 20
3772.78143144489
 10
2329.328527240501
 20
3772.78143144489
 10
2319.166852073999
 20
3764.61393144489
 10
2314.086014763001
 20
3756.446431444894
 10
2314.086014763001
 20
3744.195181444889
 10
2316.626433418503
 20
3736.027681444897
  0
LINE
  5
3C69
102
{ACAD_REACTORS
330
3FA8
102
}
330
1F
100
AcDbEntity
  8
05鉄筋
  6
Continuous
370
    20
100
AcDbLine
 10
1548.092463560472
 20
3946.933429557417
 30
0.0
 11
1756.092463560486
 21
3946.933429557417
 31
0.0
  0
LINE
  5
3C6A
102
{ACAD_REACTORS
330
3FA8
102
}
330
1F
100
AcDbEntity
  8
05鉄筋
  6
Continuous
370
    20
100
AcDbLine
 10
1548.092471682565
 20
3936.933429557417
 30
0.0
 11
1756.092463560486
 21
3936.933429557417
 31
0.0
  0
LINE
  5
3C77
102
{ACAD_REACTORS
330
3FA8
102
}
330
1F
100
AcDbEntity
  8
05鉄筋
  6
Continuous
370
    20
100
AcDbLine
 10
1548.092463560472
 20
3936.933429557417
 30
0.0
 11
1548.092463560486
 21
3946.933429557417
 31
0.0
  0
LINE
  5
3C78
102
{ACAD_REACTORS
330
3FA8
102
}
330
1F
100
AcDbEntity
  8
05鉄筋
  6
Continuous
370
    20
100
AcDbLine
 10
1548.092463560486
 20
3946.175263478612
 30
0.0
 11
1548.092463560472
 21
4046.933429557417
 31
0.0
  0
LINE
  5
3C7B
102
{ACAD_REACTORS
330
3FA8
102
}
330
1F
100
AcDbEntity
  8
05鉄筋
  6
Continuous
370
    20
100
AcDbLine
 10
1818.086604560474
 20
4034.693194557412
 30
0.0
 11
1818.086604560474
 21
4034.693194557412
 31
0.0
  0
LINE
  5
3C7C
102
{ACAD_REACTORS
330
3FA8
102
}
330
1F
100
AcDbEntity
  8
05鉄筋
  6
Continuous
370
    20
100
AcDbLine
 10
1818.086604560474
 20
4034.693194557412
 30
0.0
 11
1818.086604560474
 21
4034.693194557412
 31
0.0
  0
LINE
  5
3C81
102
{ACAD_REACTORS
330
3FA8
102
}
330
1F
100
AcDbEntity
  8
05鉄筋
  6
Continuous
370
    20
100
AcDbLine
 10
1756.092463560472
 20
3936.933429557112
 30
0.0
 11
1756.092463560486
 21
3946.933429557112
 31
0.0
  0
LINE
  5
3C83
102
{ACAD_REACTORS
330
3FA8
102
}
330
1F
100
AcDbEntity
  8
05鉄筋
  6
Continuous
370
    20
100
AcDbLine
 10
1548.092471682565
 20
3946.933446627723
 30
0.0
 11
1756.092471682579
 21
3946.933446627723
 31
0.0
  0
LINE
  5
3C85
102
{ACAD_REACTORS
330
3FA8
102
}
330
1F
100
AcDbEntity
  8
05鉄筋
  6
Continuous
370
    20
100
AcDbLine
 10
1548.092471682565
 20
3936.933446627723
 30
0.0
 11
1756.092471682579
 21
3936.933446627723
 31
0.0
  0
LINE
  5
3C86
102
{ACAD_REACTORS
330
3FA8
102
}
330
1F
100
AcDbEntity
  8
05鉄筋
  6
Continuous
370
    20
100
AcDbLine
 10
1548.092471682565
 20
3936.933446627723
 30
0.0
 11
1548.092471682565
 21
3426.933563808148
 31
0.0
  0
LINE
  5
3C90
102
{ACAD_REACTORS
330
3FA8
102
}
330
1F
100
AcDbEntity
  8
05鉄筋
  6
Continuous
370
    20
100
AcDbLine
 10
1548.092471682565
 20
3936.933446627723
 30
0.0
 11
1548.092471682579
 21
3946.933446627723
 31
0.0
  0
LINE
  5
3C91
102
{ACAD_REACTORS
330
3FA8
102
}
330
1F
100
AcDbEntity
  8
05鉄筋
  6
Continuous
370
    20
100
AcDbLine
 10
1548.092471682579
 20
3946.175280548918
 30
0.0
 11
1548.092471682565
 21
4046.933446627723
 31
0.0
  0
LINE
  5
3C93
102
{ACAD_REACTORS
330
3FA8
102
}
330
1F
100
AcDbEntity
  8
05鉄筋
  6
Continuous
370
    20
100
AcDbLine
 10
1756.092471682579
 20
3946.933446627723
 30
0.0
 11
1750.097434741499
 21
4006.883816038318
 31
0.0
  0
LINE
  5
3C94
102
{ACAD_REACTORS
330
3FA8
102
}
330
1F
100
AcDbEntity
  8
05鉄筋
  6
Continuous
370
    20
100
AcDbLine
 10
1818.086612682568
 20
4034.693211627722
 30
0.0
 11
1818.086612682568
 21
4034.693211627722
 31
0.0
  0
LINE
  5
3C95
102
{ACAD_REACTORS
330
3FA8
102
}
330
1F
100
AcDbEntity
  8
05鉄筋
  6
Continuous
370
    20
100
AcDbLine
 10
1818.086612682568
 20
4034.693211627722
 30
0.0
 11
1818.086612682568
 21
4034.693211627722
 31
0.0
  0
LINE
  5
3C9A
102
{ACAD_REACTORS
330
3FA8
102
}
330
1F
100
AcDbEntity
  8
05鉄筋
  6
Continuous
370
    20
100
AcDbLine
 10
1756.092471682565
 20
3936.933446627418
 30
0.0
 11
1756.092471682579
 21
3946.933446627418
 31
0.0
  0
LINE
  5
3C9F
102
{ACAD_REACTORS
330
3FA8
102
}
330
1F
100
AcDbEntity
  8
05鉄筋
  6
Continuous
370
    20
100
AcDbLine
 10
1651.615274289226
 20
3946.933446627723
 30
0.0
 11
1719.821851267585
 21
4014.368314729682
 31
0.0
  0
LINE
  5
3CA3
102
{ACAD_REACTORS
330
3FA8
102
}
330
1F
100
AcDbEntity
  8
05鉄筋
  6
Continuous
370
    20
100
AcDbLine
 10
2251.092471682565
 20
3876.933563808148
 30
0.0
 11
2251.092471682565
 21
4026.933563808148
 31
0.0
  0
LINE
  5
3CA4
102
{ACAD_REACTORS
330
3FA8
102
}
330
1F
100
AcDbEntity
  8
05鉄筋
  6
Continuous
370
    20
100
AcDbLine
 10
2251.092471682565
 20
4026.933563808148
 30
0.0
 11
1751.092471682565
 21
3996.933446627694
 31
0.0
  0
LINE
  5
3CAB
102
{ACAD_REACTORS
330
3FA8
102
}
330
1F
100
AcDbEntity
  8
05鉄筋
  6
Continuous
370
    20
100
AcDbLine
 10
2251.092471682565
 20
3876.933446627723
 30
0.0
 11
1548.092471682565
 21
3876.933446627723
 31
0.0
  0
LINE
  5
3F93
102
{ACAD_REACTORS
330
3FA8
102
}
330
1F
100
AcDbEntity
  8
05鉄筋
  6
Continuous
370
    20
100
AcDbLine
 10
1548.092471682565
 20
3946.933446627723
 30
0.0
 11
1718.092471682565
 21
3946.933446627723
 31
0.0
  0
LINE
  5
3F94
102
{ACAD_REACTORS
330
3FA8
102
}
330
1F
100
AcDbEntity
  8
05鉄筋
  6
Continuous
370
    20
100
AcDbLine
 10
1633.316641296358
 20
3946.933446627723
 30
0.0
 11
1710.385578011028
 21
4024.002383342335
 31
0.0
  0
LINE
  5
3F96
102
{ACAD_REACTORS
330
3FA8
102
}
330
1F
100
AcDbEntity
  8
05鉄筋
  6
Continuous
370
    20
100
AcDbLine
 10
1612.10343789645
 20
3946.933446627723
 30
0.0
 11
1708.457104974525
 21
4043.287113706001
 31
0.0
  0
LINE
  5
3F97
102
{ACAD_REACTORS
330
3FA8
102
}
330
1F
100
AcDbEntity
  8
05鉄筋
  6
Continuous
370
    20
100
AcDbLine
 10
1548.092471682565
 20
4051.743878605399
 30
0.0
 11
1643.282039705064
 21
4146.933446627723
 31
0.0
  0
LINE
  5
3F98
102
{ACAD_REACTORS
330
3FA8
102
}
330
1F
100
AcDbEntity
  8
05鉄筋
  6
Continuous
370
    20
100
AcDbLine
 10
1548.092471682565
 20
4030.530675205375
 30
0.0
 11
1664.495243104971
 21
4146.933446627723
 31
0.0
  0
LINE
  5
3F99
102
{ACAD_REACTORS
330
3FA8
102
}
330
1F
100
AcDbEntity
  8
05鉄筋
  6
Continuous
370
    20
100
AcDbLine
 10
1548.092471682565
 20
4072.957082005394
 30
0.0
 11
1622.068836304923
 21
4146.933446627723
 31
0.0
  0
ARC
  5
3F9A
102
{ACAD_REACTORS
330
3FA8
102
}
330
1F
100
AcDbEntity
  8
05鉄筋
  6
Continuous
370
    20
100
AcDbCircle
 10
1568.092471682565
 20
4126.933446627752
 30
0.0
 40
19.99999999999091
100
AcDbArc
 50
90.0
 51
180.0
  0
ARC
  5
3F9B
102
{ACAD_REACTORS
330
3FA8
102
}
330
1F
100
AcDbEntity
  8
05鉄筋
  6
Continuous
370
    20
100
AcDbCircle
 10
1717.992720440143
 20
4126.933446627723
 30
0.0
 40
20.00000000000141
100
AcDbArc
 50
5.710593137585681
 51
90.0
  0
LINE
  5
3F9C
102
{ACAD_REACTORS
330
3FA8
102
}
330
1F
100
AcDbEntity
  8
05鉄筋
  6
Continuous
370
    20
100
AcDbLine
 10
1568.092471682565
 20
4146.933446627723
 30
0.0
 11
1717.992720440143
 21
4146.933446627723
 31
0.0
  0
LINE
  5
3F9D
102
{ACAD_REACTORS
330
3FA8
102
}
330
1F
100
AcDbEntity
  8
05鉄筋
  6
Continuous
370
    20
100
AcDbLine
 10
1756.092471682579
 20
3946.933446627723
 30
0.0
 11
1737.893464244549
 21
4128.923521008141
 31
0.0
  0
LINE
  5
3F9E
102
{ACAD_REACTORS
330
3FA8
102
}
330
1F
100
AcDbEntity
  8
05鉄筋
  6
Continuous
370
    20
100
AcDbLine
 10
1548.092471682565
 20
4126.933446627723
 30
0.0
 11
1548.092471682565
 21
3936.933446627723
 31
0.0
  0
LINE
  5
3FA1
102
{ACAD_REACTORS
330
3FA8
102
}
330
1F
100
AcDbEntity
  8
05鉄筋
370
    20
100
AcDbLine
 10
2251.092471682565
 20
3876.933563808148
 30
0.0
 11
2251.092471682565
 21
3426.933563808148
 31
0.0
  0
LINE
  5
3FA2
102
{ACAD_REACTORS
330
3FA8
102
}
330
1F
100
AcDbEntity
  8
05鉄筋
370
    20
100
AcDbLine
 10
2251.092471682565
 20
3426.933563808148
 30
0.0
 11
1548.092471682565
 21
3426.933563808148
 31
0.0
  0
LINE
  5
3FA3
102
{ACAD_REACTORS
330
3FA8
102
}
330
1F
100
AcDbEntity
  8
05鉄筋
370
    20
100
AcDbLine
 10
1651.092471682565
 20
3426.933563808148
 30
0.0
 11
1651.092471682565
 21
3876.933446627723
 31
0.0
  0
LINE
  5
3FA4
102
{ACAD_REACTORS
330
3FA8
102
}
330
1F
100
AcDbEntity
  8
05鉄筋
370
    20
100
AcDbLine
 10
1651.092471682565
 20
3876.933446627723
 30
0.0
 11
1801.092471682565
 21
3876.933446627723
 31
0.0
  0
LINE
  5
3FA5
102
{ACAD_REACTORS
330
3FA8
102
}
330
1F
100
AcDbEntity
  8
05鉄筋
370
    20
100
AcDbLine
 10
1801.092471682565
 20
3876.933446627723
 30
0.0
 11
1801.092471682565
 21
3576.933446627723
 31
0.0
  0
LINE
  5
3FA6
102
{ACAD_REACTORS
330
3FA8
102
}
330
1F
100
AcDbEntity
  8
05鉄筋
370
    20
100
AcDbLine
 10
1801.092471682565
 20
3576.933446627723
 30
0.0
 11
2101.092471682565
 21
3576.933446627723
 31
0.0
  0
LINE
  5
3FA7
102
{ACAD_REACTORS
330
3FA8
102
}
330
1F
100
AcDbEntity
  8
05鉄筋
370
    20
100
AcDbLine
 10
2101.092471682565
 20
3576.933446627723
 30
0.0
 11
2101.092471682565
 21
3876.933446627723
 31
0.0
  0
LINE
  5
3FA9
330
1F
100
AcDbEntity
  8
02メイン楮図
100
AcDbLine
 10
3025.999274318248
 20
4310.342235515798
 30
0.0
 11
3025.999274318248
 21
3679.608402112897
 31
0.0
  0
MTEXT
  5
3FE6
330
1F
100
AcDbEntity
  8
99注釈、説明
  6
Continuous
100
AcDbMText
 10
2565.131055193538
 20
4134.333364160861
 30
0.0
 40
50.0
 41
1050.0
 71
     1
 72
     1
  1
\A1;掘削部
  7
YOKO_GOTHIC
 73
     2
 44
0.7714285714285714
1001
AcadAnnotative
1000
AnnotativeData
1002
{
1070
     1
1070
     0
1002
}
  0
LINE
  5
4022
330
1F
100
AcDbEntity
  8
02メイン楮図
100
AcDbLine
 10
3025.999274318248
 20
3876.933563808148
 30
0.0
 11
3492.012272828171
 21
3876.933563808148
 31
0.0
  0
MTEXT
  5
405F
330
1F
100
AcDbEntity
  8
99注釈、説明
  6
Continuous
100
AcDbMText
 10
3153.905752986226
 20
4137.706540853427
 30
0.0
 40
50.0
 41
1050.0
 71
     1
 72
     1
  1
\A1;影響部
  7
YOKO_GOTHIC
 73
     2
 44
0.7714285714285714
1001
AcadAnnotative
1000
AnnotativeData
1002
{
1070
     1
1070
     0
1002
}
  0
LEADER
  5
41BD
330
1F
100
AcDbEntity
  8
99注釈、説明
100
AcDbLeader
  3
Vnas_Gothic
 71
     0
 76
     3
 10
2251.092471682568
 20
3994.256071201509
 30
0.0
 10
2106.242214515467
 20
3311.453995487247
 30
0.0
 10
2738.818067666485
 20
3311.453995487247
 30
0.0
211
-1.0
221
1.224646799147353E-16
231
0.0
1001
ACAD
1000
DSTYLE
1002
{
1070
   140
1040
1.75
1070
   144
1040
1.0
1070
   147
1040
0.25
1070
    77
1070
     0
1070
    78
1070
     1
1070
   271
1070
     3
1002
}
  0
LINE
  5
41BE
330
1F
100
AcDbEntity
  8
99注釈、説明
100
AcDbLine
 10
2251.092471682568
 20
3994.256071201509
 30
0.0
 11
2248.787855893996
 21
3981.087220261315
 31
0.0
  0
LINE
  5
41BF
330
1F
100
AcDbEntity
  8
99注釈、説明
100
AcDbLine
 10
2251.092471682568
 20
3994.256071201509
 30
0.0
 11
2241.255185990693
 21
3986.850166512637
 31
0.0
  0
MTEXT
  5
41FC
330
1F
100
AcDbEntity
  8
99注釈、説明
  6
Continuous
100
AcDbMText
 10
2126.11689463256
 20
3358.642146453223
 30
0.0
 40
35.0
 41
1050.0
 71
     1
 72
     1
  1
\A1;街渠側面もプライムコート塗布
  7
YOKO_GOTHIC
 73
     2
 44
0.7714285714285714
1001
AcadAnnotative
1000
AnnotativeData
1002
{
1070
     1
1070
     0
1002
}
  0
LINE
  5
438C
330
1F
100
AcDbEntity
  8
02メイン楮図
100
AcDbLine
 10
496.7119338632983
 20
4016.933446627698
 30
0.0
 11
1548.092471682565
 21
4016.933446627694
 31
0.0
  0
LINE
  5
438D
330
1F
100
AcDbEntity
  8
02メイン楮図
100
AcDbLine
 10
484.2698898216804
 20
3986.933446627694
 30
0.0
 11
1548.092471682565
 21
3986.933446627694
 31
0.0
  0
LEADER
  5
438F
330
1F
100
AcDbEntity
  8
99注釈、説明
100
AcDbLeader
  3
Vnas_Gothic
 71
     0
 76
     3
 10
559.3591111535425
 20
3950.983181896043
 30
0.0
 10
559.3591111535425
 20
3538.922902097363
 30
0.0
 10
1534.46985333494
 20
3538.922902097363
 30
0.0
1001
ACAD
1000
DSTYLE
1002
{
1070
   140
1040
1.75
1070
   144
1040
1.0
1070
   147
1040
0.25
1070
    77
1070
     0
1070
    78
1070
     1
1070
   271
1070
     3
1002
}
  0
LWPOLYLINE
  5
4390
330
1F
100
AcDbEntity
  8
99注釈、説明
  6
Continuous
100
AcDbPolyline
 90
        3
 70
     0
 43
0.0
 10
562.6924444868746
 20
3930.983181896043
 10
559.3591111535425
 20
3950.983181896043
 10
556.0257778202104
 20
3930.983181896043
  0
LEADER
  5
4391
330
1F
100
AcDbEntity
  8
99注釈、説明
100
AcDbLeader
  3
Vnas_Gothic
 71
     0
 76
     3
 10
519.2863194576967
 20
3865.660623984071
 30
0.0
 10
519.2863194576967
 20
3471.102890047476
 30
0.0
 10
1531.241931855348
 20
3471.102890047476
 30
0.0
1001
ACAD
1000
DSTYLE
1002
{
1070
   140
1040
1.75
1070
   144
1040
1.0
1070
   147
1040
0.25
1070
    77
1070
     0
1070
    78
1070
     1
1070
   271
1070
     3
1002
}
  0
LWPOLYLINE
  5
4392
330
1F
100
AcDbEntity
  8
99注釈、説明
  6
Continuous
100
AcDbPolyline
 90
        3
 70
     0
 43
0.0
 10
522.6196527910288
 20
3845.660623984071
 10
519.2863194576967
 20
3865.660623984071
 10
515.9529861243609
 20
3845.660623984071
  0
LEADER
  5
4393
330
1F
100
AcDbEntity
  8
99注釈、説明
100
AcDbLeader
  3
Vnas_Gothic
 71
     0
 76
     3
 10
601.6336340278103
 20
3999.373899438249
 30
0.0
 10
601.6336340278103
 20
3606.513336338698
 30
0.0
 10
1544.153617773682
 20
3606.513336338698
 30
0.0
1001
ACAD
1000
DSTYLE
1002
{
1070
   140
1040
1.75
1070
   144
1040
1.0
1070
   147
1040
0.25
1070
    77
1070
     0
1070
    78
1070
     1
1070
   271
1070
     3
1002
}
  0
LWPOLYLINE
  5
4394
330
1F
100
AcDbEntity
  8
99注釈、説明
  6
Continuous
100
AcDbPolyline
 90
        3
 70
     0
 43
0.0
 10
604.9669673611425
 20
3979.373899438249
 10
601.6336340278103
 20
3999.373899438249
 10
598.3003006944782
 20
3979.373899438249
  0
MTEXT
  5
4398
330
1F
100
AcDbEntity
  8
99注釈、説明
  6
Continuous
100
AcDbMText
 10
675.0748686861152
 20
3647.332598747145
 30
0.0
 40
35.0
 41
2450.0
 71
     1
 72
     1
  1
\A1;表　　層　（開粒度アスコン(13)）
  7
YOKO_GOTHIC
 73
     2
 44
0.7714285714285714
  0
MTEXT
  5
4399
330
1F
100
AcDbEntity
  8
02メイン楮図
  6
Continuous
100
AcDbMText
 10
1381.413643945965
 20
3648.252132279193
 30
0.0
 40
35.0
 41
612.5
 71
     1
 72
     1
  1
\A1;\W1.00;\T1.00;\Q0.00;t = 3cm
  7
YOKO_GOTHIC
 73
     2
 44
0.7714285714285714
  0
MTEXT
  5
439A
330
1F
100
AcDbEntity
  8
99注釈、説明
  6
Continuous
100
AcDbMText
 10
675.0748686861152
 20
3579.742164505811
 30
0.0
 40
35.0
 41
1925.0
 71
     1
 72
     1
  1
\A1;路　　盤  （再生砕石(0～3cm)）
  7
YOKO_GOTHIC
 73
     2
 44
0.7714285714285714
  0
MTEXT
  5
439B
330
1F
100
AcDbEntity
  8
99注釈、説明
  6
Continuous
100
AcDbMText
 10
1328.440039158941
 20
3579.742164505811
 30
0.0
 40
35.0
 41
612.5
 71
     1
 72
     1
  1
\A1;\W1.00;\T1.00;\Q0.00;t =10cm
  7
YOKO_GOTHIC
 73
     2
 44
0.7714285714285714
  0
MTEXT
  5
439C
330
1F
100
AcDbEntity
  8
99注釈、説明
  6
Continuous
100
AcDbMText
 10
675.0748686861152
 20
3511.922152455923
 30
0.0
 40
35.0
 41
1400.0
 71
     1
 72
     1
  1
\A1;フィルター層・砂　t = 5cm
  7
YOKO_GOTHIC
 73
     2
 44
0.7714285714285714
1001
AcadAnnotative
1000
AnnotativeData
1002
{
1070
     1
1070
     0
1002
}
  0
LINE
  5
439E
330
1F
100
AcDbEntity
  8
02メイン楮図
100
AcDbLine
 10
513.25661925639
 20
3886.933446627694
 30
0.0
 11
1548.092471682565
 21
3886.933446627694
 31
0.0
  0
LINE
  5
439F
330
1F
100
AcDbEntity
  8
02メイン楮図
100
AcDbLine
 10
496.7119338633092
 20
3836.933446627694
 30
0.0
 11
1548.09247168255
 21
3836.933446627694
 31
0.0
  0
SPLINE
  5
43A0
330
1F
100
AcDbEntity
  8
02メイン楮図
100
AcDbSpline
210
0.0
220
0.0
230
1.0
 70
     8
 71
     3
 72
    10
 73
     6
 74
     4
 42
0.000000001
 43
0.0000000001
 44
0.000001
 40
0.0
 40
0.0
 40
0.0
 40
0.0
 40
60.8531167031954
 40
131.0852367437693
 40
190.9759396224823
 40
190.9759396224823
 40
190.9759396224823
 40
190.9759396224823
 10
496.7119338633092
 20
3836.933446627698
 30
0.0
 10
506.4254499958599
 20
3856.955630408998
 30
0.0
 10
527.3495785059167
 20
3900.085922672616
 30
0.0
 10
467.3089438976272
 20
3954.221528056968
 30
0.0
 10
487.4443522318855
 20
3997.167164941272
 30
0.0
 10
496.7119338633092
 20
4016.933446627698
 30
0.0
 11
496.7119338633092
 21
3836.933446627698
 31
0.0
 11
512.4618795102833
 21
3895.713043998663
 31
0.0
 11
481.8409780484035
 21
3958.918353715211
 31
0.0
 11
496.7119338633092
 21
4016.933446627698
 31
0.0
  0
MTEXT
  5
43A1
330
1F
100
AcDbEntity
  8
99注釈、説明
  6
Continuous
100
AcDbMText
 10
979.572689790064
 20
4518.263639993203
 30
0.0
 40
80.0
 41
1298.798066999912
 71
     2
 72
     1
  1
\A1;歩道舗装工（一般部）
  7
YOKO_GOTHIC
 73
     2
 44
0.6
1001
AcadAnnotative
1000
AnnotativeData
1002
{
1070
     1
1070
     0
1002
}
  0
LWPOLYLINE
  5
43A3
330
1F
100
AcDbEntity
  8
02メイン楮図
100
AcDbPolyline
 90
       12
 70
     1
 43
0.0
 10
519.5561195860864
 20
3887.02885493796
 10
527.9541982360861
 20
3890.40385493796
 10
532.1532373360787
 20
3893.77885493796
 10
534.2527568860787
 20
3900.52885493796
 10
534.2527568860787
 20
3907.27885493796
 10
532.1532373360787
 20
3917.40385493796
 10
527.9541982360861
 20
3920.77885493796
 10
525.8546786860825
 20
3920.77885493796
 10
517.4566000360828
 20
3914.02885493796
 10
513.2575609360829
 20
3907.27885493796
 10
513.2575609360829
 20
3897.15385493796
 10
515.3570804860829
 20
3890.40385493796
  0
LWPOLYLINE
  5
43A4
330
1F
100
AcDbEntity
  8
02メイン楮図
100
AcDbPolyline
 90
       12
 70
     1
 43
0.0
 10
540.5513156742854
 20
3887.02885493796
 10
548.9493943242742
 20
3890.40385493796
 10
553.1484334242741
 20
3893.77885493796
 10
555.2479529742777
 20
3900.52885493796
 10
555.2479529742777
 20
3907.27885493796
 10
553.1484334242741
 20
3917.40385493796
 10
548.9493943242742
 20
3920.77885493796
 10
546.8498747742815
 20
3920.77885493796
 10
538.4517961242818
 20
3914.02885493796
 10
534.2527570242783
 20
3907.27885493796
 10
534.2527570242783
 20
3897.15385493796
 10
536.3522765742782
 20
3890.40385493796
  0
LWPOLYLINE
  5
43A5
330
1F
100
AcDbEntity
  8
02メイン楮図
100
AcDbPolyline
 90
       12
 70
     1
 43
0.0
 10
561.5465117624735
 20
3887.02885493796
 10
569.9445904124696
 20
3890.40385493796
 10
574.1436295124731
 20
3893.77885493796
 10
576.2431490624767
 20
3900.52885493796
 10
576.2431490624767
 20
3907.27885493796
 10
574.1436295124731
 20
3917.40385493796
 10
569.9445904124696
 20
3920.77885493796
 10
567.8450708624696
 20
3920.77885493796
 10
559.4469922124808
 20
3914.02885493796
 10
555.2479531124736
 20
3907.27885493796
 10
555.2479531124736
 20
3897.15385493796
 10
557.3474726624772
 20
3890.40385493796
  0
LWPOLYLINE
  5
43A6
330
1F
100
AcDbEntity
  8
02メイン楮図
100
AcDbPolyline
 90
       12
 70
     1
 43
0.0
 10
582.5417078506689
 20
3887.02885493796
 10
590.9397865006758
 20
3890.40385493796
 10
595.1388256006721
 20
3893.77885493796
 10
597.2383451506721
 20
3900.52885493796
 10
597.2383451506721
 20
3907.27885493796
 10
595.1388256006721
 20
3917.40385493796
 10
590.9397865006758
 20
3920.77885493796
 10
588.8402669506722
 20
3920.77885493796
 10
580.4421883006689
 20
3914.02885493796
 10
576.2431492006726
 20
3907.27885493796
 10
576.2431492006726
 20
3897.15385493796
 10
578.3426687506762
 20
3890.40385493796
  0
LWPOLYLINE
  5
43A7
330
1F
100
AcDbEntity
  8
02メイン楮図
100
AcDbPolyline
 90
       12
 70
     1
 43
0.0
 10
490.7390782290895
 20
3952.713547421072
 10
499.1371568790892
 20
3956.088547421072
 10
503.3361959790818
 20
3959.463547421072
 10
505.4357155290818
 20
3966.213547421072
 10
505.4357155290818
 20
3972.963547421072
 10
503.3361959790818
 20
3983.088547421072
 10
499.1371568790892
 20
3986.463547421072
 10
497.0376373290856
 20
3986.463547421072
 10
488.6395586790859
 20
3979.713547421072
 10
484.440519579086
 20
3972.963547421072
 10
484.440519579086
 20
3962.838547421072
 10
486.5400391290859
 20
3956.088547421072
  0
LWPOLYLINE
  5
43A8
330
1F
100
AcDbEntity
  8
02メイン楮図
100
AcDbPolyline
 90
       12
 70
     1
 43
0.0
 10
511.7342743172885
 20
3952.713547421072
 10
520.1323529672845
 20
3956.088547421072
 10
524.3313920672881
 20
3959.463547421072
 10
526.4309116172917
 20
3966.213547421072
 10
526.4309116172917
 20
3972.963547421072
 10
524.3313920672881
 20
3983.088547421072
 10
520.1323529672845
 20
3986.463547421072
 10
518.0328334172846
 20
3986.463547421072
 10
509.6347547672958
 20
3979.713547421072
 10
505.4357156672886
 20
3972.963547421072
 10
505.4357156672886
 20
3962.838547421072
 10
507.5352352172922
 20
3956.088547421072
  0
LWPOLYLINE
  5
43A9
330
1F
100
AcDbEntity
  8
02メイン楮図
100
AcDbPolyline
 90
       12
 70
     1
 43
0.0
 10
532.7294704054766
 20
3952.713547421072
 10
541.1275490554726
 20
3956.088547421072
 10
545.3265881554762
 20
3959.463547421072
 10
547.4261077054798
 20
3966.213547421072
 10
547.4261077054798
 20
3972.963547421072
 10
545.3265881554762
 20
3983.088547421072
 10
541.1275490554726
 20
3986.463547421072
 10
539.0280295054727
 20
3986.463547421072
 10
530.6299508554839
 20
3979.713547421072
 10
526.4309117554767
 20
3972.963547421072
 10
526.4309117554767
 20
3962.838547421072
 10
528.5304313054803
 20
3956.088547421072
  0
LWPOLYLINE
  5
43AA
330
1F
100
AcDbEntity
  8
02メイン楮図
100
AcDbPolyline
 90
       12
 70
     1
 43
0.0
 10
553.7246664936793
 20
3952.713547421072
 10
562.1227451436789
 20
3956.088547421072
 10
566.3217842436752
 20
3959.463547421072
 10
568.4213037936752
 20
3966.213547421072
 10
568.4213037936752
 20
3972.963547421072
 10
566.3217842436752
 20
3983.088547421072
 10
562.1227451436789
 20
3986.463547421072
 10
560.0232255936753
 20
3986.463547421072
 10
551.6251469436793
 20
3979.713547421072
 10
547.4261078436866
 20
3972.963547421072
 10
547.4261078436866
 20
3962.838547421072
 10
549.5256273936793
 20
3956.088547421072
  0
LWPOLYLINE
  5
43AB
330
1F
100
AcDbEntity
  8
02メイン楮図
100
AcDbPolyline
 90
       12
 70
     1
 43
0.0
 10
511.1879117294047
 20
3918.282230765892
 10
519.5859903794008
 20
3921.657230765892
 10
523.7850294794043
 20
3925.032230765892
 10
525.8845490294079
 20
3931.782230765892
 10
525.8845490294079
 20
3938.532230765892
 10
523.7850294794043
 20
3948.657230765892
 10
519.5859903794008
 20
3952.032230765892
 10
517.4864708294008
 20
3952.032230765892
 10
509.088392179412
 20
3945.282230765892
 10
504.8893530794048
 20
3938.532230765892
 10
504.8893530794048
 20
3928.407230765892
 10
506.9888726294084
 20
3921.657230765892
  0
LWPOLYLINE
  5
43AC
330
1F
100
AcDbEntity
  8
02メイン楮図
100
AcDbPolyline
 90
       12
 70
     1
 43
0.0
 10
532.1831078176001
 20
3918.282230765892
 10
540.5811864675961
 20
3921.657230765892
 10
544.7802255676033
 20
3925.032230765892
 10
546.879745117596
 20
3931.782230765892
 10
546.879745117596
 20
3938.532230765892
 10
544.7802255676033
 20
3948.657230765892
 10
540.5811864675961
 20
3952.032230765892
 10
538.4816669175962
 20
3952.032230765892
 10
530.0835882676001
 20
3945.282230765892
 10
525.8845491676038
 20
3938.532230765892
 10
525.8845491676038
 20
3928.407230765892
 10
527.9840687176074
 20
3921.657230765892
  0
LWPOLYLINE
  5
43AD
330
1F
100
AcDbEntity
  8
02メイン楮図
100
AcDbPolyline
 90
       12
 70
     1
 43
0.0
 10
553.1783039057955
 20
3918.282230765892
 10
561.5763825557951
 20
3921.657230765892
 10
565.7754216557914
 20
3925.032230765892
 10
567.8749412057914
 20
3931.782230765892
 10
567.8749412057914
 20
3938.532230765892
 10
565.7754216557914
 20
3948.657230765892
 10
561.5763825557951
 20
3952.032230765892
 10
559.4768630057915
 20
3952.032230765892
 10
551.0787843557955
 20
3945.282230765892
 10
546.8797452558028
 20
3938.532230765892
 10
546.8797452558028
 20
3928.407230765892
 10
548.9792648057955
 20
3921.657230765892
  0
LWPOLYLINE
  5
43AE
330
1F
100
AcDbEntity
  8
02メイン楮図
100
AcDbPolyline
 90
       12
 70
     1
 43
0.0
 10
574.1734999939945
 20
3918.282230765892
 10
582.5715786439941
 20
3921.657230765892
 10
586.7706177439941
 20
3925.032230765892
 10
588.8701372939977
 20
3931.782230765892
 10
588.8701372939977
 20
3938.532230765892
 10
586.7706177439941
 20
3948.657230765892
 10
582.5715786439941
 20
3952.032230765892
 10
580.4720590940015
 20
3952.032230765892
 10
572.0739804439909
 20
3945.282230765892
 10
567.8749413439909
 20
3938.532230765892
 10
567.8749413439909
 20
3928.407230765892
 10
569.9744608939909
 20
3921.657230765892
  0
LWPOLYLINE
  5
43AF
330
1F
100
AcDbEntity
  8
02メイン楮図
100
AcDbPolyline
 90
       12
 70
     1
 43
0.0
 10
1468.54840760375
 20
3887.02885493796
 10
1476.946486253739
 20
3890.40385493796
 10
1481.145525353739
 20
3893.77885493796
 10
1483.245044903742
 20
3900.52885493796
 10
1483.245044903742
 20
3907.27885493796
 10
1481.145525353739
 20
3917.40385493796
 10
1476.946486253739
 20
3920.77885493796
 10
1474.846966703746
 20
3920.77885493796
 10
1466.448888053746
 20
3914.02885493796
 10
1462.249848953743
 20
3907.27885493796
 10
1462.249848953743
 20
3897.15385493796
 10
1464.349368503743
 20
3890.40385493796
  0
LWPOLYLINE
  5
43B0
330
1F
100
AcDbEntity
  8
02メイン楮図
100
AcDbPolyline
 90
       12
 70
     1
 43
0.0
 10
1489.543603691938
 20
3887.02885493796
 10
1497.941682341934
 20
3890.40385493796
 10
1502.140721441938
 20
3893.77885493796
 10
1504.240240991941
 20
3900.52885493796
 10
1504.240240991941
 20
3907.27885493796
 10
1502.140721441938
 20
3917.40385493796
 10
1497.941682341934
 20
3920.77885493796
 10
1495.842162791934
 20
3920.77885493796
 10
1487.444084141945
 20
3914.02885493796
 10
1483.245045041938
 20
3907.27885493796
 10
1483.245045041938
 20
3897.15385493796
 10
1485.344564591942
 20
3890.40385493796
  0
LWPOLYLINE
  5
43B1
330
1F
100
AcDbEntity
  8
02メイン楮図
100
AcDbPolyline
 90
       12
 70
     1
 43
0.0
 10
1510.538799780134
 20
3887.02885493796
 10
1518.93687843013
 20
3890.40385493796
 10
1523.135917530137
 20
3893.77885493796
 10
1525.235437080129
 20
3900.52885493796
 10
1525.235437080129
 20
3907.27885493796
 10
1523.135917530137
 20
3917.40385493796
 10
1518.93687843013
 20
3920.77885493796
 10
1516.83735888013
 20
3920.77885493796
 10
1508.439280230134
 20
3914.02885493796
 10
1504.240241130137
 20
3907.27885493796
 10
1504.240241130137
 20
3897.15385493796
 10
1506.339760680141
 20
3890.40385493796
  0
LWPOLYLINE
  5
43B2
330
1F
100
AcDbEntity
  8
02メイン楮図
100
AcDbPolyline
 90
       12
 70
     1
 43
0.0
 10
1531.533995868329
 20
3887.02885493796
 10
1539.93207451834
 20
3890.40385493796
 10
1544.131113618332
 20
3893.77885493796
 10
1546.230633168332
 20
3900.52885493796
 10
1546.230633168332
 20
3907.27885493796
 10
1544.131113618332
 20
3917.40385493796
 10
1539.93207451834
 20
3920.77885493796
 10
1537.832554968336
 20
3920.77885493796
 10
1529.434476318329
 20
3914.02885493796
 10
1525.235437218336
 20
3907.27885493796
 10
1525.235437218336
 20
3897.15385493796
 10
1527.334956768329
 20
3890.40385493796
  0
LWPOLYLINE
  5
43B3
330
1F
100
AcDbEntity
  8
02メイン楮図
100
AcDbPolyline
 90
       12
 70
     1
 43
0.0
 10
1439.731366246753
 20
3952.713547421072
 10
1448.129444896742
 20
3956.088547421072
 10
1452.328483996742
 20
3959.463547421072
 10
1454.428003546745
 20
3966.213547421072
 10
1454.428003546745
 20
3972.963547421072
 10
1452.328483996742
 20
3983.088547421072
 10
1448.129444896742
 20
3986.463547421072
 10
1446.029925346749
 20
3986.463547421072
 10
1437.63184669675
 20
3979.713547421072
 10
1433.432807596746
 20
3972.963547421072
 10
1433.432807596746
 20
3962.838547421072
 10
1435.532327146746
 20
3956.088547421072
  0
LWPOLYLINE
  5
43B4
330
1F
100
AcDbEntity
  8
02メイン楮図
100
AcDbPolyline
 90
       12
 70
     1
 43
0.0
 10
1460.726562334949
 20
3952.713547421072
 10
1469.124640984945
 20
3956.088547421072
 10
1473.323680084952
 20
3959.463547421072
 10
1475.423199634944
 20
3966.213547421072
 10
1475.423199634944
 20
3972.963547421072
 10
1473.323680084952
 20
3983.088547421072
 10
1469.124640984945
 20
3986.463547421072
 10
1467.025121434945
 20
3986.463547421072
 10
1458.627042784949
 20
3979.713547421072
 10
1454.428003684952
 20
3972.963547421072
 10
1454.428003684952
 20
3962.838547421072
 10
1456.527523234956
 20
3956.088547421072
  0
LWPOLYLINE
  5
43B5
330
1F
100
AcDbEntity
  8
02メイン楮図
100
AcDbPolyline
 90
       12
 70
     1
 43
0.0
 10
1481.721758423137
 20
3952.713547421072
 10
1490.119837073133
 20
3956.088547421072
 10
1494.31887617314
 20
3959.463547421072
 10
1496.418395723133
 20
3966.213547421072
 10
1496.418395723133
 20
3972.963547421072
 10
1494.31887617314
 20
3983.088547421072
 10
1490.119837073133
 20
3986.463547421072
 10
1488.020317523133
 20
3986.463547421072
 10
1479.622238873137
 20
3979.713547421072
 10
1475.42319977314
 20
3972.963547421072
 10
1475.42319977314
 20
3962.838547421072
 10
1477.522719323144
 20
3956.088547421072
  0
LWPOLYLINE
  5
43B6
330
1F
100
AcDbEntity
  8
02メイン楮図
100
AcDbPolyline
 90
       12
 70
     1
 43
0.0
 10
1502.716954511343
 20
3952.713547421072
 10
1511.115033161343
 20
3956.088547421072
 10
1515.314072261335
 20
3959.463547421072
 10
1517.413591811335
 20
3966.213547421072
 10
1517.413591811335
 20
3972.963547421072
 10
1515.314072261335
 20
3983.088547421072
 10
1511.115033161343
 20
3986.463547421072
 10
1509.015513611339
 20
3986.463547421072
 10
1500.617434961339
 20
3979.713547421072
 10
1496.418395861339
 20
3972.963547421072
 10
1496.418395861339
 20
3962.838547421072
 10
1498.517915411339
 20
3956.088547421072
  0
LWPOLYLINE
  5
43B7
330
1F
100
AcDbEntity
  8
02メイン楮図
100
AcDbPolyline
 90
       12
 70
     1
 43
0.0
 10
1460.180199747065
 20
3918.282230765892
 10
1468.578278397061
 20
3921.657230765892
 10
1472.777317497068
 20
3925.032230765892
 10
1474.876837047061
 20
3931.782230765892
 10
1474.876837047061
 20
3938.532230765892
 10
1472.777317497068
 20
3948.657230765892
 10
1468.578278397061
 20
3952.032230765892
 10
1466.478758847061
 20
3952.032230765892
 10
1458.080680197065
 20
3945.282230765892
 10
1453.881641097068
 20
3938.532230765892
 10
1453.881641097068
 20
3928.407230765892
 10
1455.981160647072
 20
3921.657230765892
  0
LWPOLYLINE
  5
43B8
330
1F
100
AcDbEntity
  8
02メイン楮図
100
AcDbPolyline
 90
       12
 70
     1
 43
0.0
 10
1481.17539583526
 20
3918.282230765892
 10
1489.57347448526
 20
3921.657230765892
 10
1493.772513585256
 20
3925.032230765892
 10
1495.872033135256
 20
3931.782230765892
 10
1495.872033135256
 20
3938.532230765892
 10
1493.772513585256
 20
3948.657230765892
 10
1489.57347448526
 20
3952.032230765892
 10
1487.473954935256
 20
3952.032230765892
 10
1479.07587628526
 20
3945.282230765892
 10
1474.876837185268
 20
3938.532230765892
 10
1474.876837185268
 20
3928.407230765892
 10
1476.97635673526
 20
3921.657230765892
  0
LWPOLYLINE
  5
43B9
330
1F
100
AcDbEntity
  8
02メイン楮図
100
AcDbPolyline
 90
       12
 70
     1
 43
0.0
 10
1502.170591923459
 20
3918.282230765892
 10
1510.568670573459
 20
3921.657230765892
 10
1514.767709673451
 20
3925.032230765892
 10
1516.867229223451
 20
3931.782230765892
 10
1516.867229223451
 20
3938.532230765892
 10
1514.767709673451
 20
3948.657230765892
 10
1510.568670573459
 20
3952.032230765892
 10
1508.469151023455
 20
3952.032230765892
 10
1500.071072373456
 20
3945.282230765892
 10
1495.872033273456
 20
3938.532230765892
 10
1495.872033273456
 20
3928.407230765892
 10
1497.971552823456
 20
3921.657230765892
  0
LWPOLYLINE
  5
43BA
330
1F
100
AcDbEntity
  8
02メイン楮図
100
AcDbPolyline
 90
       12
 70
     1
 43
0.0
 10
1523.165788011658
 20
3918.282230765892
 10
1531.563866661654
 20
3921.657230765892
 10
1535.762905761658
 20
3925.032230765892
 10
1537.862425311661
 20
3931.782230765892
 10
1537.862425311661
 20
3938.532230765892
 10
1535.762905761658
 20
3948.657230765892
 10
1531.563866661654
 20
3952.032230765892
 10
1529.464347111654
 20
3952.032230765892
 10
1521.066268461655
 20
3945.282230765892
 10
1516.867229361651
 20
3938.532230765892
 10
1516.867229361651
 20
3928.407230765892
 10
1518.966748911651
 20
3921.657230765892
  0
CIRCLE
  5
43BC
330
1F
100
AcDbEntity
  8
02メイン楮図
100
AcDbCircle
 10
1200.621178080801
 20
3855.433073553982
 30
0.0
 40
1.999999999999887
  0
CIRCLE
  5
43BD
330
1F
100
AcDbEntity
  8
02メイン楮図
100
AcDbCircle
 10
810.7726527506493
 20
3871.666176602406
 30
0.0
 40
1.999999999999887
  0
CIRCLE
  5
43BE
330
1F
100
AcDbEntity
  8
02メイン楮図
100
AcDbCircle
 10
853.7291473011028
 20
3877.360727841709
 30
0.0
 40
1.999999999999887
  0
CIRCLE
  5
43BF
330
1F
100
AcDbEntity
  8
02メイン楮図
100
AcDbCircle
 10
921.0944923376337
 20
3873.83048046912
 30
0.0
 40
1.999999999999887
  0
CIRCLE
  5
43C0
330
1F
100
AcDbEntity
  8
02メイン楮図
100
AcDbCircle
 10
864.3880777339655
 20
3848.214264276145
 30
0.0
 40
1.999999999999887
  0
CIRCLE
  5
43C1
330
1F
100
AcDbEntity
  8
02メイン楮図
100
AcDbCircle
 10
1194.778000680137
 20
3874.236766327636
 30
0.0
 40
1.999999999999887
  0
CIRCLE
  5
43C2
330
1F
100
AcDbEntity
  8
02メイン楮図
100
AcDbCircle
 10
905.13029907089
 20
3877.360727841709
 30
0.0
 40
1.999999999999887
  0
CIRCLE
  5
43C3
330
1F
100
AcDbEntity
  8
02メイン楮図
100
AcDbCircle
 10
928.3565658413972
 20
3853.662251774773
 30
0.0
 40
1.999999999999887
  0
CIRCLE
  5
43C4
330
1F
100
AcDbEntity
  8
02メイン楮図
100
AcDbCircle
 10
1026.391491074475
 20
3854.03545823827
 30
0.0
 40
1.999999999999887
  0
CIRCLE
  5
43C5
330
1F
100
AcDbEntity
  8
02メイン楮図
100
AcDbCircle
 10
1002.395843566566
 20
3875.661539312137
 30
0.0
 40
1.999999999999887
  0
CIRCLE
  5
43C6
330
1F
100
AcDbEntity
  8
02メイン楮図
100
AcDbCircle
 10
896.1685091194631
 20
3857.616802795403
 30
0.0
 40
1.999999999999887
  0
CIRCLE
  5
43C7
330
1F
100
AcDbEntity
  8
02メイン楮図
100
AcDbCircle
 10
981.6698090282698
 20
3860.693656069414
 30
0.0
 40
1.999999999999887
  0
CIRCLE
  5
43C8
330
1F
100
AcDbEntity
  8
02メイン楮図
100
AcDbCircle
 10
1157.633190814595
 20
3874.236766327636
 30
0.0
 40
1.999999999999887
  0
CIRCLE
  5
43C9
330
1F
100
AcDbEntity
  8
02メイン楮図
100
AcDbCircle
 10
1155.451554441726
 20
3850.896068628323
 30
0.0
 40
1.999999999999887
  0
CIRCLE
  5
43CA
330
1F
100
AcDbEntity
  8
02メイン楮図
100
AcDbCircle
 10
1085.350834241861
 20
3873.83048046912
 30
0.0
 40
1.999999999999887
  0
CIRCLE
  5
43CB
330
1F
100
AcDbEntity
  8
02メイン楮図
100
AcDbCircle
 10
1097.039448905489
 20
3866.141643568042
 30
0.0
 40
1.999999999999887
  0
CIRCLE
  5
43CC
330
1F
100
AcDbEntity
  8
02メイン楮図
100
AcDbCircle
 10
1286.751986011641
 20
3873.83048046912
 30
0.0
 40
1.999999999999887
  0
CIRCLE
  5
43CD
330
1F
100
AcDbEntity
  8
02メイン楮図
100
AcDbCircle
 10
1291.253739512078
 20
3846.583630479023
 30
0.0
 40
1.999999999999887
  0
CIRCLE
  5
43CE
330
1F
100
AcDbEntity
  8
02メイン楮図
100
AcDbCircle
 10
1298.440600675265
 20
3866.141643568042
 30
0.0
 40
1.999999999999887
  0
CIRCLE
  5
43CF
330
1F
100
AcDbEntity
  8
02メイン楮図
100
AcDbCircle
 10
1337.309219575411
 20
3848.814955626664
 30
0.0
 40
1.999999999999887
  0
CIRCLE
  5
43D0
330
1F
100
AcDbEntity
  8
02メイン楮図
100
AcDbCircle
 10
1497.698125535197
 20
3873.83048046912
 30
0.0
 40
1.999999999999887
  0
CIRCLE
  5
43D1
330
1F
100
AcDbEntity
  8
02メイン楮図
100
AcDbCircle
 10
1492.654891281854
 20
3846.583630479023
 30
0.0
 40
1.999999999999887
  0
CIRCLE
  5
43D2
330
1F
100
AcDbEntity
  8
02メイン楮図
100
AcDbCircle
 10
1406.623379389286
 20
3852.031617977651
 30
0.0
 40
1.999999999999887
  0
CIRCLE
  5
43D3
330
1F
100
AcDbEntity
  8
02メイン楮図
100
AcDbCircle
 10
1064.226901200698
 20
3847.597019997038
 30
0.0
 40
1.999999999999887
  0
CIRCLE
  5
43D4
330
1F
100
AcDbEntity
  8
02メイン楮図
100
AcDbCircle
 10
790.4918701542301
 20
3871.246566283653
 30
0.0
 40
1.999999999999887
  0
CIRCLE
  5
43D5
330
1F
100
AcDbEntity
  8
02メイン楮図
100
AcDbCircle
 10
533.3003657909758
 20
3843.182810469143
 30
0.0
 40
1.999999999999887
  0
CIRCLE
  5
43D6
330
1F
100
AcDbEntity
  8
02メイン楮図
100
AcDbCircle
 10
603.9483236219785
 20
3855.288995798915
 30
0.0
 40
1.999999999999887
  0
CIRCLE
  5
43D7
330
1F
100
AcDbEntity
  8
02メイン楮図
100
AcDbCircle
 10
672.1158316843612
 20
3843.744373022715
 30
0.0
 40
1.999999999999887
  0
CIRCLE
  5
43D8
330
1F
100
AcDbEntity
  8
02メイン楮図
100
AcDbCircle
 10
627.3941496381558
 20
3850.402570853863
 30
0.0
 40
1.999999999999887
  0
CIRCLE
  5
43D9
330
1F
100
AcDbEntity
  8
02メイン楮図
100
AcDbCircle
 10
673.967723163405
 20
3875.661539312137
 30
0.0
 40
1.999999999999887
  0
CIRCLE
  5
43DA
330
1F
100
AcDbEntity
  8
02メイン楮図
100
AcDbCircle
 10
596.9045080836913
 20
3878.997187848096
 30
0.0
 40
1.999999999999887
  0
CIRCLE
  5
43DB
330
1F
100
AcDbEntity
  8
02メイン楮図
100
AcDbCircle
 10
719.5055762120501
 20
3845.264053724952
 30
0.0
 40
1.999999999999887
  0
CIRCLE
  5
43DC
330
1F
100
AcDbEntity
  8
02メイン楮図
100
AcDbCircle
 10
522.7328438243894
 20
3872.101289509372
 30
0.0
 40
1.999999999999887
  0
CIRCLE
  5
43DD
330
1F
100
AcDbEntity
  8
02メイン楮図
100
AcDbCircle
 10
554.0656580439572
 20
3880.822742717077
 30
0.0
 40
1.999999999999887
  0
CIRCLE
  5
43DE
330
1F
100
AcDbEntity
  8
02メイン楮図
100
AcDbCircle
 10
762.2480663474671
 20
3850.917260584296
 30
0.0
 40
1.999999999999887
  0
CIRCLE
  5
43DF
330
1F
100
AcDbEntity
  8
02メイン楮図
100
AcDbCircle
 10
1201.122569789313
 20
3849.460374825734
 30
0.0
 40
1.999999999999887
  0
CIRCLE
  5
43E0
330
1F
100
AcDbEntity
  8
02メイン楮図
100
AcDbCircle
 10
807.7859193961085
 20
3865.519774997114
 30
0.0
 40
1.999999999999887
  0
CIRCLE
  5
43E1
330
1F
100
AcDbEntity
  8
02メイン楮図
100
AcDbCircle
 10
1187.365148126173
 20
3844.260398932178
 30
0.0
 40
1.999999999999887
  0
CIRCLE
  5
43E2
330
1F
100
AcDbEntity
  8
02メイン楮図
100
AcDbCircle
 10
1163.977759923775
 20
3849.460374825734
 30
0.0
 40
1.999999999999887
  0
CIRCLE
  5
43E3
330
1F
100
AcDbEntity
  8
02メイン楮図
100
AcDbCircle
 10
1208.699441969966
 20
3842.80217699459
 30
0.0
 40
1.999999999999887
  0
CIRCLE
  5
43E4
330
1F
100
AcDbEntity
  8
02メイン楮図
100
AcDbCircle
 10
1051.337300031519
 20
3873.513375956854
 30
0.0
 40
1.999999999999887
  0
CIRCLE
  5
43E5
330
1F
100
AcDbEntity
  8
02メイン楮図
100
AcDbCircle
 10
1399.474385893383
 20
3856.062799013986
 30
0.0
 40
1.999999999999887
  0
CIRCLE
  5
43E6
330
1F
100
AcDbEntity
  8
02メイン楮図
100
AcDbCircle
 10
1430.807200112951
 20
3864.784252221687
 30
0.0
 40
1.999999999999887
  0
CIRCLE
  5
43E7
330
1F
100
AcDbEntity
  8
02メイン楮図
100
AcDbCircle
 10
1006.61561798531
 20
3880.171573787999
 30
0.0
 40
1.999999999999887
  0
CIRCLE
  5
43E8
330
1F
100
AcDbEntity
  8
02メイン楮図
100
AcDbCircle
 10
1382.602003855573
 20
3878.583776778787
 30
0.0
 40
1.999999999999887
  0
CIRCLE
  5
43E9
330
1F
100
AcDbEntity
  8
02メイン楮図
100
AcDbCircle
 10
1129.830378900853
 20
3850.619561286627
 30
0.0
 40
1.999999999999887
  0
CIRCLE
  5
43EA
330
1F
100
AcDbEntity
  8
02メイン楮図
100
AcDbCircle
 10
1112.957996863042
 20
3873.140539051432
 30
0.0
 40
1.999999999999887
  0
CIRCLE
  5
43EB
330
1F
100
AcDbEntity
  8
02メイン楮図
100
AcDbCircle
 10
561.5442793406328
 20
3852.069461489895
 30
0.0
 40
1.999999999999887
  0
CIRCLE
  5
43EC
330
1F
100
AcDbEntity
  8
02メイン楮図
100
AcDbCircle
 10
592.8770935601897
 20
3860.790914697604
 30
0.0
 40
1.999999999999887
  0
CIRCLE
  5
43ED
330
1F
100
AcDbEntity
  8
02メイン楮図
100
AcDbCircle
 10
544.6718973028146
 20
3874.5904392547
 30
0.0
 40
1.999999999999887
  0
INSERT
  5
43EE
330
1F
100
AcDbEntity
  8
02メイン楮図
100
AcDbBlockReference
  2
HATCH6
 10
-4055.070185190983
 20
-937.4863805374516
 30
0.0
  0
MTEXT
  5
43EF
330
1F
100
AcDbEntity
  8
99注釈、説明
  6
Continuous
100
AcDbMText
 10
650.8398764319463
 20
3722.177898166285
 30
0.0
 40
35.0
 41
1925.0
 71
     1
 72
     1
  1
\A1;\W1.00;\T1.00;\Q0.00;（透水性アスファルト）
  7
YOKO_GOTHIC
 73
     2
 44
0.7714285714285714
  0
LINE
  5
43F0
330
1F
100
AcDbEntity
  8
99注釈、説明
100
AcDbLine
 10
451.3119649373621
 20
4394.913303060943
 30
0.0
 11
1514.659114065984
 21
4394.913303060961
 31
0.0
  0
LINE
  5
450E
330
1F
100
AcDbEntity
  8
02メイン楮図
100
AcDbLine
 10
496.7119338633056
 20
2771.143645264952
 30
0.0
 11
1548.092471682572
 21
2771.143645264949
 31
0.0
  0
LEADER
  5
450F
330
1F
100
AcDbEntity
  8
99注釈、説明
100
AcDbLeader
  3
Vnas_Gothic
 71
     0
 76
     3
 10
1026.518842005324
 20
2649.913869080472
 30
0.0
 10
1026.518842005324
 20
2293.133100734622
 30
0.0
 10
2001.629584186718
 20
2293.133100734622
 30
0.0
1001
ACAD
1000
DSTYLE
1002
{
1070
   140
1040
1.75
1070
   144
1040
1.0
1070
   147
1040
0.25
1070
    77
1070
     0
1070
    78
1070
     1
1070
   271
1070
     3
1002
}
  0
LWPOLYLINE
  5
4510
330
1F
100
AcDbEntity
  8
99注釈、説明
  6
Continuous
100
AcDbPolyline
 90
        3
 70
     0
 43
0.0
 10
1029.852175338656
 20
2629.913869080472
 10
1026.518842005324
 20
2649.913869080472
 10
1023.185508671988
 20
2629.913869080472
  0
LEADER
  5
4511
330
1F
100
AcDbEntity
  8
99注釈、説明
100
AcDbLeader
  3
Vnas_Gothic
 71
     0
 76
     3
 10
1068.793364879592
 20
2753.584098075506
 30
0.0
 10
1068.793364879592
 20
2360.723534975954
 30
0.0
 10
2204.760671559132
 20
2360.723534975954
 30
0.0
1001
ACAD
1000
DSTYLE
1002
{
1070
   140
1040
1.75
1070
   144
1040
1.0
1070
   147
1040
0.25
1070
    77
1070
     0
1070
    78
1070
     1
1070
   271
1070
     3
1002
}
  0
LWPOLYLINE
  5
4512
330
1F
100
AcDbEntity
  8
99注釈、説明
  6
Continuous
100
AcDbPolyline
 90
        3
 70
     0
 43
0.0
 10
1072.126698212924
 20
2733.584098075506
 10
1068.793364879592
 20
2753.584098075506
 10
1065.460031546259
 20
2733.584098075506
  0
SPLINE
  5
4513
330
1F
100
AcDbEntity
  8
02メイン楮図
100
AcDbSpline
210
0.0
220
0.0
230
1.0
 70
     8
 71
     3
 72
    10
 73
     6
 74
     4
 42
0.000000001
 43
0.0000000001
 44
0.000001
 40
0.0
 40
0.0
 40
0.0
 40
0.0
 40
80.33856918727378
 40
150.5706892505855
 40
210.4613921341764
 40
210.4613921341764
 40
210.4613921341764
 40
210.4613921341764
 10
1548.092471682554
 20
2571.143645264949
 30
0.0
 10
1559.569135734192
 20
2598.159786193406
 30
0.0
 10
1581.078717668621
 20
2648.793485495551
 30
0.0
 10
1519.428435400984
 20
2708.427643933454
 30
0.0
 10
1539.057802202261
 20
2751.376076724989
 30
0.0
 10
1548.092471682565
 20
2771.143645264949
 30
0.0
 11
1548.092471682554
 21
2571.143645264949
 31
0.0
 11
1563.842417329539
 21
2649.923242635907
 31
0.0
 11
1533.221515867659
 21
2713.128552352458
 31
0.0
 11
1548.092471682565
 21
2771.143645264949
 31
0.0
  0
MTEXT
  5
4516
330
1F
100
AcDbEntity
  8
99注釈、説明
  6
Continuous
100
AcDbMText
 10
1142.234599537904
 20
2401.542797384398
 30
0.0
 40
35.0
 41
3150.0
 71
     1
 72
     1
  1
\A1;表　　層（高粘度改質開粒度アスコン(13)）
  7
YOKO_GOTHIC
 73
     2
 44
0.7714285714285714
  0
MTEXT
  5
4517
330
1F
100
AcDbEntity
  8
99注釈、説明
  6
Continuous
100
AcDbMText
 10
2026.106025502926
 20
2406.904577431298
 30
0.0
 40
35.0
 41
612.5
 71
     1
 72
     1
  1
\A1;\W1.00;\T1.00;\Q0.00;t = 5cm
  7
YOKO_GOTHIC
 73
     2
 44
0.7714285714285714
  0
MTEXT
  5
4518
330
1F
100
AcDbEntity
  8
99注釈、説明
  6
Continuous
100
AcDbMText
 10
1142.234599537904
 20
2333.952363143064
 30
0.0
 40
35.0
 41
1750.0
 71
     1
 72
     1
  1
\A1;路　　盤（再生砕石(0～4cm)）
  7
YOKO_GOTHIC
 73
     2
 44
0.7714285714285714
  0
MTEXT
  5
4519
330
1F
100
AcDbEntity
  8
99注釈、説明
  6
Continuous
100
AcDbMText
 10
1795.599770010729
 20
2333.952363143064
 30
0.0
 40
35.0
 41
612.5
 71
     1
 72
     1
  1
\A1;\W1.00;\T1.00;\Q0.00;t =15cm
  7
YOKO_GOTHIC
 73
     2
 44
0.7714285714285714
  0
SPLINE
  5
451A
330
1F
100
AcDbEntity
  8
02メイン楮図
100
AcDbSpline
210
0.0
220
0.0
230
1.0
 70
     8
 71
     3
 72
    10
 73
     6
 74
     4
 42
0.000000001
 43
0.0000000001
 44
0.000001
 40
0.0
 40
0.0
 40
0.0
 40
0.0
 40
80.3385691872845
 40
150.570689250593
 40
210.4613921341814
 40
210.4613921341814
 40
210.4613921341814
 40
210.4613921341814
 10
496.7119338633056
 20
2571.143645264949
 30
0.0
 10
508.1885979149446
 20
2598.15978619341
 30
0.0
 10
529.6981798493744
 20
2648.793485495558
 30
0.0
 10
468.0478975817375
 20
2708.427643933461
 30
0.0
 10
487.6772643830105
 20
2751.376076724994
 30
0.0
 10
496.7119338633129
 20
2771.143645264954
 30
0.0
 11
496.7119338633056
 21
2571.143645264949
 31
0.0
 11
512.4618795102906
 21
2649.923242635918
 31
0.0
 11
481.8409780484108
 21
2713.128552352466
 31
0.0
 11
496.7119338633129
 21
2771.143645264954
 31
0.0
  0
LINE
  5
451B
330
1F
100
AcDbEntity
  8
02メイン楮図
100
AcDbLine
 10
481.1835940185374
 20
2721.143645264952
 30
0.0
 11
1532.564131837786
 21
2721.143645264949
 31
0.0
  0
LINE
  5
451C
330
1F
100
AcDbEntity
  8
02メイン楮図
100
AcDbLine
 10
496.7119338633056
 20
2571.143645264949
 30
0.0
 11
1548.092471682572
 21
2571.143645264949
 31
0.0
  0
LWPOLYLINE
  5
451D
330
1F
100
AcDbEntity
  8
02メイン楮図
100
AcDbPolyline
 90
       12
 70
     1
 43
0.0
 10
1465.015647412973
 20
2574.930026021195
 10
1474.253533927975
 20
2578.642526021196
 10
1478.872476937973
 20
2582.355026021194
 10
1481.181948442969
 20
2589.780026021193
 10
1481.181948442969
 20
2597.205026021196
 10
1478.872476937973
 20
2608.34252602119
 10
1474.253533927975
 20
2612.055026021191
 10
1471.944062422979
 20
2612.055026021191
 10
1462.706175907977
 20
2604.630026021194
 10
1458.087232897986
 20
2597.205026021196
 10
1458.087232897986
 20
2586.067526021196
 10
1460.396704402981
 20
2578.642526021196
  0
LWPOLYLINE
  5
451E
330
1F
100
AcDbEntity
  8
02メイン楮図
100
AcDbPolyline
 90
       12
 70
     1
 43
0.0
 10
1488.110363109998
 20
2574.930026021195
 10
1497.348249624989
 20
2578.642526021196
 10
1501.967192634991
 20
2582.355026021194
 10
1504.276664139987
 20
2589.780026021193
 10
1504.276664139987
 20
2597.205026021196
 10
1501.967192634991
 20
2608.34252602119
 10
1497.348249624989
 20
2612.055026021191
 10
1495.038778119986
 20
2612.055026021191
 10
1485.800891604991
 20
2604.630026021194
 10
1481.181948594993
 20
2597.205026021196
 10
1481.181948594993
 20
2586.067526021196
 10
1483.491420099988
 20
2578.642526021196
  0
LWPOLYLINE
  5
451F
330
1F
100
AcDbEntity
  8
02メイン楮図
100
AcDbPolyline
 90
       12
 70
     1
 43
0.0
 10
1511.205078807012
 20
2574.930026021195
 10
1520.442965322007
 20
2578.642526021196
 10
1525.061908332005
 20
2582.355026021194
 10
1527.371379837012
 20
2589.780026021193
 10
1527.371379837012
 20
2597.205026021196
 10
1525.061908332005
 20
2608.34252602119
 10
1520.442965322007
 20
2612.055026021191
 10
1518.133493817
 20
2612.055026021191
 10
1508.895607302009
 20
2604.630026021194
 10
1504.276664292007
 20
2597.205026021196
 10
1504.276664292007
 20
2586.067526021196
 10
1506.586135797002
 20
2578.642526021196
  0
LWPOLYLINE
  5
4520
330
1F
100
AcDbEntity
  8
02メイン楮図
100
AcDbPolyline
 90
       12
 70
     1
 43
0.0
 10
1534.29979450403
 20
2574.930026021195
 10
1543.537681019032
 20
2578.642526021196
 10
1548.156624029023
 20
2582.355026021194
 10
1550.466095534026
 20
2589.780026021193
 10
1550.466095534026
 20
2597.205026021196
 10
1548.156624029023
 20
2608.34252602119
 10
1543.537681019032
 20
2612.055026021191
 10
1541.228209514025
 20
2612.055026021191
 10
1531.990322999023
 20
2604.630026021194
 10
1527.371379989025
 20
2597.205026021196
 10
1527.371379989025
 20
2586.067526021196
 10
1529.680851494028
 20
2578.642526021196
  0
LWPOLYLINE
  5
4521
330
1F
100
AcDbEntity
  8
02メイン楮図
100
AcDbPolyline
 90
       12
 70
     1
 43
0.0
 10
1452.112543890387
 20
2647.183187752618
 10
1461.350430405389
 20
2650.895687752616
 10
1465.969373415381
 20
2654.608187752618
 10
1468.278844920384
 20
2662.033187752617
 10
1468.278844920384
 20
2669.458187752614
 10
1465.969373415381
 20
2680.595687752613
 10
1461.350430405389
 20
2684.308187752618
 10
1459.040958900383
 20
2684.308187752618
 10
1449.803072385392
 20
2676.883187752617
 10
1445.18412937539
 20
2669.458187752614
 10
1445.18412937539
 20
2658.320687752619
 10
1447.493600880396
 20
2650.895687752616
  0
LWPOLYLINE
  5
4522
330
1F
100
AcDbEntity
  8
02メイン楮図
100
AcDbPolyline
 90
       12
 70
     1
 43
0.0
 10
1475.207259587412
 20
2647.183187752618
 10
1484.445146102404
 20
2650.895687752616
 10
1489.064089112406
 20
2654.608187752618
 10
1491.373560617409
 20
2662.033187752617
 10
1491.373560617409
 20
2669.458187752614
 10
1489.064089112406
 20
2680.595687752613
 10
1484.445146102404
 20
2684.308187752618
 10
1482.135674597408
 20
2684.308187752618
 10
1472.897788082417
 20
2676.883187752617
 10
1468.278845072407
 20
2669.458187752614
 10
1468.278845072407
 20
2658.320687752619
 10
1470.58831657741
 20
2650.895687752616
  0
LWPOLYLINE
  5
4523
330
1F
100
AcDbEntity
  8
02メイン楮図
100
AcDbPolyline
 90
       12
 70
     1
 43
0.0
 10
1498.301975284419
 20
2647.183187752618
 10
1507.539861799411
 20
2650.895687752616
 10
1512.158804809413
 20
2654.608187752618
 10
1514.468276314416
 20
2662.033187752617
 10
1514.468276314416
 20
2669.458187752614
 10
1512.158804809413
 20
2680.595687752613
 10
1507.539861799411
 20
2684.308187752618
 10
1505.230390294415
 20
2684.308187752618
 10
1495.992503779424
 20
2676.883187752617
 10
1491.373560769414
 20
2669.458187752614
 10
1491.373560769414
 20
2658.320687752619
 10
1493.683032274417
 20
2650.895687752616
  0
LWPOLYLINE
  5
4524
330
1F
100
AcDbEntity
  8
02メイン楮図
100
AcDbPolyline
 90
       12
 70
     1
 43
0.0
 10
1521.396690981444
 20
2647.183187752618
 10
1530.634577496436
 20
2650.895687752616
 10
1535.253520506438
 20
2654.608187752618
 10
1537.562992011433
 20
2662.033187752617
 10
1537.562992011433
 20
2669.458187752614
 10
1535.253520506438
 20
2680.595687752613
 10
1530.634577496436
 20
2684.308187752618
 10
1528.32510599144
 20
2684.308187752618
 10
1519.087219476449
 20
2676.883187752617
 10
1514.468276466447
 20
2669.458187752614
 10
1514.468276466447
 20
2658.320687752619
 10
1516.777747971442
 20
2650.895687752616
  0
LWPOLYLINE
  5
4525
330
1F
100
AcDbEntity
  8
02メイン楮図
100
AcDbPolyline
 90
       12
 70
     1
 43
0.0
 10
1473.39365921426
 20
2611.743763935157
 10
1482.631545729262
 20
2615.456263935159
 10
1487.250488739253
 20
2619.16876393516
 10
1489.559960244256
 20
2626.59376393516
 10
1489.559960244256
 20
2634.018763935159
 10
1487.250488739253
 20
2645.156263935158
 10
1482.631545729262
 20
2648.868763935159
 10
1480.322074224256
 20
2648.868763935159
 10
1471.084187709264
 20
2641.443763935156
 10
1466.465244699262
 20
2634.018763935159
 10
1466.465244699262
 20
2622.881263935158
 10
1468.774716204258
 20
2615.456263935159
  0
LWPOLYLINE
  5
4526
330
1F
100
AcDbEntity
  8
02メイン楮図
100
AcDbPolyline
 90
       12
 70
     1
 43
0.0
 10
1496.488374911274
 20
2611.743763935157
 10
1505.726261426269
 20
2615.456263935159
 10
1510.345204436268
 20
2619.16876393516
 10
1512.654675941274
 20
2626.59376393516
 10
1512.654675941274
 20
2634.018763935159
 10
1510.345204436268
 20
2645.156263935158
 10
1505.726261426269
 20
2648.868763935159
 10
1503.416789921273
 20
2648.868763935159
 10
1494.178903406271
 20
2641.443763935156
 10
1489.55996039628
 20
2634.018763935159
 10
1489.55996039628
 20
2622.881263935158
 10
1491.869431901276
 20
2615.456263935159
  0
LWPOLYLINE
  5
4527
330
1F
100
AcDbEntity
  8
02メイン楮図
100
AcDbPolyline
 90
       12
 70
     1
 43
0.0
 10
1519.583090608292
 20
2611.743763935157
 10
1528.820977123283
 20
2615.456263935159
 10
1533.439920133285
 20
2619.16876393516
 10
1535.749391638288
 20
2626.59376393516
 10
1535.749391638288
 20
2634.018763935159
 10
1533.439920133285
 20
2645.156263935158
 10
1528.820977123283
 20
2648.868763935159
 10
1526.51150561828
 20
2648.868763935159
 10
1517.273619103285
 20
2641.443763935156
 10
1512.654676093287
 20
2634.018763935159
 10
1512.654676093287
 20
2622.881263935158
 10
1514.96414759829
 20
2615.456263935159
  0
LWPOLYLINE
  5
4528
330
1F
100
AcDbEntity
  8
02メイン楮図
100
AcDbPolyline
 90
       12
 70
     1
 43
0.0
 10
1542.677806305306
 20
2611.743763935157
 10
1551.915692820308
 20
2615.456263935159
 10
1556.53463583031
 20
2619.16876393516
 10
1558.844107335306
 20
2626.59376393516
 10
1558.844107335306
 20
2634.018763935159
 10
1556.53463583031
 20
2645.156263935158
 10
1551.915692820308
 20
2648.868763935159
 10
1549.606221315313
 20
2648.868763935159
 10
1540.368334800303
 20
2641.443763935156
 10
1535.749391790301
 20
2634.018763935159
 10
1535.749391790301
 20
2622.881263935158
 10
1538.058863295308
 20
2615.456263935159
  0
LWPOLYLINE
  5
4529
330
1F
100
AcDbEntity
  8
02メイン楮図
100
AcDbPolyline
 90
       12
 70
     1
 43
0.0
 10
1445.670906643751
 20
2682.448732057876
 10
1454.908793158746
 20
2686.161232057873
 10
1459.527736168744
 20
2689.873732057875
 10
1461.837207673751
 20
2697.298732057874
 10
1461.837207673751
 20
2704.723732057872
 10
1459.527736168744
 20
2715.861232057874
 10
1454.908793158746
 20
2719.573732057876
 10
1452.59932165375
 20
2719.573732057876
 10
1443.361435138748
 20
2712.148732057874
 10
1438.742492128757
 20
2704.723732057872
 10
1438.742492128757
 20
2693.586232057876
 10
1441.051963633752
 20
2686.161232057873
  0
LWPOLYLINE
  5
452A
330
1F
100
AcDbEntity
  8
02メイン楮図
100
AcDbPolyline
 90
       12
 70
     1
 43
0.0
 10
1468.765622340776
 20
2682.448732057876
 10
1478.003508855771
 20
2686.161232057873
 10
1482.622451865769
 20
2689.873732057875
 10
1484.931923370776
 20
2697.298732057874
 10
1484.931923370776
 20
2704.723732057872
 10
1482.622451865769
 20
2715.861232057874
 10
1478.003508855771
 20
2719.573732057876
 10
1475.694037350775
 20
2719.573732057876
 10
1466.45615083578
 20
2712.148732057874
 10
1461.837207825771
 20
2704.723732057872
 10
1461.837207825771
 20
2693.586232057876
 10
1464.146679330777
 20
2686.161232057873
  0
LWPOLYLINE
  5
452B
330
1F
100
AcDbEntity
  8
02メイン楮図
100
AcDbPolyline
 90
       12
 70
     1
 43
0.0
 10
1491.860338037783
 20
2682.448732057876
 10
1501.098224552778
 20
2686.161232057873
 10
1505.717167562776
 20
2689.873732057875
 10
1508.026639067783
 20
2697.298732057874
 10
1508.026639067783
 20
2704.723732057872
 10
1505.717167562776
 20
2715.861232057874
 10
1501.098224552778
 20
2719.573732057876
 10
1498.788753047782
 20
2719.573732057876
 10
1489.550866532787
 20
2712.148732057874
 10
1484.931923522778
 20
2704.723732057872
 10
1484.931923522778
 20
2693.586232057876
 10
1487.241395027784
 20
2686.161232057873
  0
LWPOLYLINE
  5
452C
330
1F
100
AcDbEntity
  8
02メイン楮図
100
AcDbPolyline
 90
       12
 70
     1
 43
0.0
 10
1514.9550537348
 20
2682.448732057876
 10
1524.192940249803
 20
2686.161232057873
 10
1528.811883259801
 20
2689.873732057875
 10
1531.121354764797
 20
2697.298732057874
 10
1531.121354764797
 20
2704.723732057872
 10
1528.811883259801
 20
2715.861232057874
 10
1524.192940249803
 20
2719.573732057876
 10
1521.883468744807
 20
2719.573732057876
 10
1512.645582229805
 20
2712.148732057874
 10
1508.026639219814
 20
2704.723732057872
 10
1508.026639219814
 20
2693.586232057876
 10
1510.336110724809
 20
2686.161232057873
  0
LWPOLYLINE
  5
452D
330
1F
100
AcDbEntity
  8
02メイン楮図
100
AcDbPolyline
 90
       12
 70
     1
 43
0.0
 10
514.1570809285768
 20
2574.930026021195
 10
523.3949674435789
 20
2578.642526021196
 10
528.013910453581
 20
2582.355026021194
 10
530.3233819585766
 20
2589.780026021193
 10
530.3233819585766
 20
2597.205026021196
 10
528.013910453581
 20
2608.34252602119
 10
523.3949674435789
 20
2612.055026021191
 10
521.0854959385761
 20
2612.055026021191
 10
511.8476094235812
 20
2604.630026021194
 10
507.2286664135827
 20
2597.205026021196
 10
507.2286664135827
 20
2586.067526021196
 10
509.5381379185783
 20
2578.642526021196
  0
LWPOLYLINE
  5
452E
330
1F
100
AcDbEntity
  8
02メイン楮図
100
AcDbPolyline
 90
       12
 70
     1
 43
0.0
 10
537.2517966255946
 20
2574.930026021195
 10
546.4896831405968
 20
2578.642526021196
 10
551.108626150588
 20
2582.355026021194
 10
553.4180976555836
 20
2589.780026021193
 10
553.4180976555836
 20
2597.205026021196
 10
551.108626150588
 20
2608.34252602119
 10
546.4896831405968
 20
2612.055026021191
 10
544.1802116355902
 20
2612.055026021191
 10
534.942325120599
 20
2604.630026021194
 10
530.3233821105969
 20
2597.205026021196
 10
530.3233821105969
 20
2586.067526021196
 10
532.6328536155925
 20
2578.642526021196
  0
LWPOLYLINE
  5
452F
330
1F
100
AcDbEntity
  8
02メイン楮図
100
AcDbPolyline
 90
       12
 70
     1
 43
0.0
 10
560.3465123226088
 20
2574.930026021195
 10
569.5843988376037
 20
2578.642526021196
 10
574.2033418476021
 20
2582.355026021194
 10
576.5128133526086
 20
2589.780026021193
 10
576.5128133526086
 20
2597.205026021196
 10
574.2033418476021
 20
2608.34252602119
 10
569.5843988376037
 20
2612.055026021191
 10
567.2749273326081
 20
2612.055026021191
 10
558.0370408176059
 20
2604.630026021194
 10
553.4180978076147
 20
2597.205026021196
 10
553.4180978076147
 20
2586.067526021196
 10
555.7275693126103
 20
2578.642526021196
  0
LWPOLYLINE
  5
4530
330
1F
100
AcDbEntity
  8
02メイン楮図
100
AcDbPolyline
 90
       12
 70
     1
 43
0.0
 10
583.4412280196266
 20
2574.930026021195
 10
592.6791145346288
 20
2578.642526021196
 10
597.2980575446272
 20
2582.355026021194
 10
599.6075290496337
 20
2589.780026021193
 10
599.6075290496337
 20
2597.205026021196
 10
597.2980575446272
 20
2608.34252602119
 10
592.6791145346288
 20
2612.055026021191
 10
590.3696430296222
 20
2612.055026021191
 10
581.1317565146201
 20
2604.630026021194
 10
576.5128135046216
 20
2597.205026021196
 10
576.5128135046216
 20
2586.067526021196
 10
578.8222850096245
 20
2578.642526021196
  0
LWPOLYLINE
  5
4531
330
1F
100
AcDbEntity
  8
02メイン楮図
100
AcDbPolyline
 90
       12
 70
     1
 43
0.0
 10
524.9440318242596
 20
2647.183187752618
 10
534.1819183392618
 20
2650.895687752616
 10
538.800861349253
 20
2654.608187752618
 10
541.1103328542558
 20
2662.033187752617
 10
541.1103328542558
 20
2669.458187752614
 10
538.800861349253
 20
2680.595687752613
 10
534.1819183392618
 20
2684.308187752618
 10
531.8724468342552
 20
2684.308187752618
 10
522.634560319264
 20
2676.883187752617
 10
518.0156173092619
 20
2669.458187752614
 10
518.0156173092619
 20
2658.320687752619
 10
520.3250888142684
 20
2650.895687752616
  0
LWPOLYLINE
  5
4532
330
1F
100
AcDbEntity
  8
02メイン楮図
100
AcDbPolyline
 90
       12
 70
     1
 43
0.0
 10
548.0387475212847
 20
2647.183187752618
 10
557.2766340362759
 20
2650.895687752616
 10
561.895577046278
 20
2654.608187752618
 10
564.2050485512809
 20
2662.033187752617
 10
564.2050485512809
 20
2669.458187752614
 10
561.895577046278
 20
2680.595687752613
 10
557.2766340362759
 20
2684.308187752618
 10
554.9671625312803
 20
2684.308187752618
 10
545.7292760162891
 20
2676.883187752617
 10
541.1103330062797
 20
2669.458187752614
 10
541.1103330062797
 20
2658.320687752619
 10
543.4198045112826
 20
2650.895687752616
  0
LWPOLYLINE
  5
4533
330
1F
100
AcDbEntity
  8
02メイン楮図
100
AcDbPolyline
 90
       12
 70
     1
 43
0.0
 10
571.1334632182916
 20
2647.183187752618
 10
580.3713497332828
 20
2650.895687752616
 10
584.990292743285
 20
2654.608187752618
 10
587.2997642482878
 20
2662.033187752617
 10
587.2997642482878
 20
2669.458187752614
 10
584.990292743285
 20
2680.595687752613
 10
580.3713497332828
 20
2684.308187752618
 10
578.0618782282872
 20
2684.308187752618
 10
568.823991713296
 20
2676.883187752617
 10
564.2050487032866
 20
2669.458187752614
 10
564.2050487032866
 20
2658.320687752619
 10
566.5145202082895
 20
2650.895687752616
  0
LWPOLYLINE
  5
4534
330
1F
100
AcDbEntity
  8
02メイン楮図
100
AcDbPolyline
 90
       12
 70
     1
 43
0.0
 10
594.2281789153167
 20
2647.183187752618
 10
603.4660654303079
 20
2650.895687752616
 10
608.08500844031
 20
2654.608187752618
 10
610.3944799453056
 20
2662.033187752617
 10
610.3944799453056
 20
2669.458187752614
 10
608.08500844031
 20
2680.595687752613
 10
603.4660654303079
 20
2684.308187752618
 10
601.1565939253123
 20
2684.308187752618
 10
591.9187074103211
 20
2676.883187752617
 10
587.299764400319
 20
2669.458187752614
 10
587.299764400319
 20
2658.320687752619
 10
589.6092359053146
 20
2650.895687752616
  0
LWPOLYLINE
  5
4535
330
1F
100
AcDbEntity
  8
02メイン楮図
100
AcDbPolyline
 90
       12
 70
     1
 43
0.0
 10
522.5350927298641
 20
2611.743763935157
 10
531.772979244859
 20
2615.456263935159
 10
536.3919222548575
 20
2619.16876393516
 10
538.701393759864
 20
2626.59376393516
 10
538.701393759864
 20
2634.018763935159
 10
536.3919222548575
 20
2645.156263935158
 10
531.772979244859
 20
2648.868763935159
 10
529.4635077398525
 20
2648.868763935159
 10
520.2256212248612
 20
2641.443763935156
 10
515.6066782148591
 20
2634.018763935159
 10
515.6066782148591
 20
2622.881263935158
 10
517.9161497198547
 20
2615.456263935159
  0
LWPOLYLINE
  5
4536
330
1F
100
AcDbEntity
  8
02メイン楮図
100
AcDbPolyline
 90
       12
 70
     1
 43
0.0
 10
545.6298084268819
 20
2611.743763935157
 10
554.8676949418732
 20
2615.456263935159
 10
559.4866379518753
 20
2619.16876393516
 10
561.7961094568709
 20
2626.59376393516
 10
561.7961094568709
 20
2634.018763935159
 10
559.4866379518753
 20
2645.156263935158
 10
554.8676949418732
 20
2648.868763935159
 10
552.5582234368703
 20
2648.868763935159
 10
543.3203369218754
 20
2641.443763935156
 10
538.701393911877
 20
2634.018763935159
 10
538.701393911877
 20
2622.881263935158
 10
541.0108654168798
 20
2615.456263935159
  0
LWPOLYLINE
  5
4537
330
1F
100
AcDbEntity
  8
02メイン楮図
100
AcDbPolyline
 90
       12
 70
     1
 43
0.0
 10
568.7245241238888
 20
2611.743763935157
 10
577.962410638891
 20
2615.456263935159
 10
582.5813536488822
 20
2619.16876393516
 10
584.8908251538851
 20
2626.59376393516
 10
584.8908251538851
 20
2634.018763935159
 10
582.5813536488822
 20
2645.156263935158
 10
577.962410638891
 20
2648.868763935159
 10
575.6529391338845
 20
2648.868763935159
 10
566.4150526188932
 20
2641.443763935156
 10
561.7961096088911
 20
2634.018763935159
 10
561.7961096088911
 20
2622.881263935158
 10
564.1055811138976
 20
2615.456263935159
  0
LWPOLYLINE
  5
4538
330
1F
100
AcDbEntity
  8
02メイン楮図
100
AcDbPolyline
 90
       12
 70
     1
 43
0.0
 10
591.819239820903
 20
2611.743763935157
 10
601.0571263359052
 20
2615.456263935159
 10
605.6760693459073
 20
2619.16876393516
 10
607.9855408509102
 20
2626.59376393516
 10
607.9855408509102
 20
2634.018763935159
 10
605.6760693459073
 20
2645.156263935158
 10
601.0571263359052
 20
2648.868763935159
 10
598.7476548309096
 20
2648.868763935159
 10
589.5097683159001
 20
2641.443763935156
 10
584.890825305909
 20
2634.018763935159
 10
584.890825305909
 20
2622.881263935158
 10
587.2002968109045
 20
2615.456263935159
  0
LWPOLYLINE
  5
4539
330
1F
100
AcDbEntity
  8
02メイン楮図
100
AcDbPolyline
 90
       12
 70
     1
 43
0.0
 10
503.1313691380165
 20
2682.448732057876
 10
512.3692556530077
 20
2686.161232057873
 10
516.9881986630098
 20
2689.873732057875
 10
519.2976701680054
 20
2697.298732057874
 10
519.2976701680054
 20
2704.723732057872
 10
516.9881986630098
 20
2715.861232057874
 10
512.3692556530077
 20
2719.573732057876
 10
510.0597841480048
 20
2719.573732057876
 10
500.8218976330099
 20
2712.148732057874
 10
496.2029546230115
 20
2704.723732057872
 10
496.2029546230115
 20
2693.586232057876
 10
498.5124261280143
 20
2686.161232057873
  0
LWPOLYLINE
  5
453A
330
1F
100
AcDbEntity
  8
02メイン楮図
100
AcDbPolyline
 90
       12
 70
     1
 43
0.0
 10
526.2260848350306
 20
2682.448732057876
 10
535.4639713500255
 20
2686.161232057873
 10
540.082914360024
 20
2689.873732057875
 10
542.3923858650305
 20
2697.298732057874
 10
542.3923858650305
 20
2704.723732057872
 10
540.082914360024
 20
2715.861232057874
 10
535.4639713500255
 20
2719.573732057876
 10
533.1544998450299
 20
2719.573732057876
 10
523.916613330035
 20
2712.148732057874
 10
519.2976703200366
 20
2704.723732057872
 10
519.2976703200366
 20
2693.586232057876
 10
521.6071418250322
 20
2686.161232057873
  0
LWPOLYLINE
  5
453B
330
1F
100
AcDbEntity
  8
02メイン楮図
100
AcDbPolyline
 90
       12
 70
     1
 43
0.0
 10
549.3208005320375
 20
2682.448732057876
 10
558.5586870470324
 20
2686.161232057873
 10
563.1776300570309
 20
2689.873732057875
 10
565.4871015620374
 20
2697.298732057874
 10
565.4871015620374
 20
2704.723732057872
 10
563.1776300570309
 20
2715.861232057874
 10
558.5586870470324
 20
2719.573732057876
 10
556.2492155420368
 20
2719.573732057876
 10
547.0113290270419
 20
2712.148732057874
 10
542.3923860170435
 20
2704.723732057872
 10
542.3923860170435
 20
2693.586232057876
 10
544.7018575220391
 20
2686.161232057873
  0
LWPOLYLINE
  5
453C
330
1F
100
AcDbEntity
  8
02メイン楮図
100
AcDbPolyline
 90
       12
 70
     1
 43
0.0
 10
572.4155162290626
 20
2682.448732057876
 10
581.6534027440575
 20
2686.161232057873
 10
586.2723457540669
 20
2689.873732057875
 10
588.5818172590625
 20
2697.298732057874
 10
588.5818172590625
 20
2704.723732057872
 10
586.2723457540669
 20
2715.861232057874
 10
581.6534027440575
 20
2719.573732057876
 10
579.3439312390619
 20
2719.573732057876
 10
570.106044724067
 20
2712.148732057874
 10
565.4871017140686
 20
2704.723732057872
 10
565.4871017140686
 20
2693.586232057876
 10
567.7965732190642
 20
2686.161232057873
  0
INSERT
  5
453D
330
1F
100
AcDbEntity
  8
02メイン楮図
100
AcDbBlockReference
  2
HATCH7
 10
-5785.254491962965
 20
-2182.421778771879
 30
0.0
  0
MTEXT
  5
453E
330
1F
100
AcDbEntity
  8
99注釈、説明
  6
Continuous
100
AcDbMText
 10
1117.999607283724
 20
2476.388096803541
 30
0.0
 40
35.0
 41
1925.0
 71
     1
 72
     1
  1
\A1;\W1.00;\T1.00;\Q0.00;（透水性アスファルト）
  7
YOKO_GOTHIC
 73
     2
 44
0.7714285714285714
  0
LINE
  5
455D
330
1F
100
AcDbEntity
  8
98印刷用
370
   100
100
AcDbLine
 10
361.3638464991382
 20
5851.657906712424
 30
0.0
 11
4161.363846499138
 21
5851.657906712424
 31
0.0
  0
LINE
  5
455E
330
1F
100
AcDbEntity
  8
98印刷用
370
   100
100
AcDbLine
 10
4161.363846499138
 20
5851.657906712424
 30
0.0
 11
4161.363846499138
 21
251.6579067124239
 31
0.0
  0
LINE
  5
455F
330
1F
100
AcDbEntity
  8
98印刷用
370
   100
100
AcDbLine
 10
4161.363846499138
 20
251.6579067124239
 30
0.0
 11
361.3638464991382
 21
251.6579067124239
 31
0.0
  0
LINE
  5
4560
330
1F
100
AcDbEntity
  8
98印刷用
370
   100
100
AcDbLine
 10
361.3638464991382
 20
251.6579067124239
 30
0.0
 11
361.3638464991382
 21
5851.657906712424
 31
0.0
  0
MTEXT
  5
4624
102
{ACAD_XDICTIONARY
360
635F
102
}
330
1F
100
AcDbEntity
  8
99注釈、説明
  6
Continuous
100
AcDbMText
 10
3747.474567619265
 20
3451.018720914197
 30
0.0
 40
35.0
 41
3412.5
 71
     1
 72
     1
  1
{\A1;（影響部は5cm）}
  7
YOKO_GOTHIC
 73
     2
 44
0.7714285714285714
1001
AcadAnnotative
1000
AnnotativeData
1002
{
1070
     1
1070
     0
1002
}
  0
MTEXT
  5
4665
330
1F
100
AcDbEntity
  8
98印刷用
  6
Continuous
100
AcDbMText
 10
1604.471667233371
 20
5328.94057630898
 30
0.0
 40
200.0
 41
2313.244679047497
 71
     2
 72
     1
  1
\A1;As舗装構造図
  7
YOKO_GOTHIC
 73
     2
 44
0.6
1001
AcadAnnotative
1000
AnnotativeData
1002
{
1070
     1
1070
     0
1002
}
  0
LINE
  5
4666
330
1F
100
AcDbEntity
  8
98印刷用
100
AcDbLine
 10
447.849327709624
 20
5070.528532768321
 30
0.0
 11
3887.675752510811
 21
5070.528532768372
 31
0.0
  0
MTEXT
  5
46A6
330
1F
100
AcDbEntity
  8
98印刷用
  6
Continuous
100
AcDbMText
 10
3241.18934529955
 20
5169.780492080443
 30
0.0
 40
80.0
 41
2600.0
 71
     2
 72
     1
  1
\A1;S＝１：２０（A4）単位(mm)
  7
YOKO_GOTHIC
 73
     2
 44
0.6
1001
AcadAnnotative
1000
AnnotativeData
1002
{
1070
     1
1070
     0
1002
}
  0
MTEXT
  5
46E6
330
1F
100
AcDbEntity
  8
98印刷用
  6
Continuous
100
AcDbMText
 10
3640.477021336192
 20
5715.837327279134
 30
0.0
 40
200.0
 41
776.1210038402278
 71
     2
 72
     1
  1
\A1;参考
  7
YOKO_GOTHIC
 73
     2
 44
0.6
1001
AcadAnnotative
1000
AnnotativeData
1002
{
1070
     1
1070
     0
1002
}
  0
LINE
  5
46E7
330
1F
100
AcDbEntity
  8
98印刷用
100
AcDbLine
 10
3229.206765572795
 20
5751.424038485611
 30
0.0
 11
4071.153188636516
 21
5751.424038485611
 31
0.0
  0
LINE
  5
46E8
330
1F
100
AcDbEntity
  8
98印刷用
100
AcDbLine
 10
4071.153188636516
 20
5751.424038485611
 30
0.0
 11
4071.153188636516
 21
5453.234680317209
 31
0.0
  0
LINE
  5
46E9
330
1F
100
AcDbEntity
  8
98印刷用
100
AcDbLine
 10
4071.153188636516
 20
5453.234680317209
 30
0.0
 11
3229.206765572795
 21
5453.234680317209
 31
0.0
  0
LINE
  5
46EA
330
1F
100
AcDbEntity
  8
98印刷用
100
AcDbLine
 10
3229.206765572795
 20
5453.234680317209
 30
0.0
 11
3229.206765572795
 21
5751.424038485611
 31
0.0
  0
MTEXT
  5
472A
102
{ACAD_XDICTIONARY
360
6361
102
}
330
1F
100
AcDbEntity
  8
99注釈、説明
  6
Continuous
100
AcDbMText
 10
3123.614830640625
 20
3479.93282454938
 30
0.0
 40
35.0
 41
3412.5
 71
     1
 72
     1
  1
{\A1;（粒度調整砕石（0～4cm))}
  7
YOKO_GOTHIC
 73
     2
 44
0.7714285714285714
1001
AcadAnnotative
1000
AnnotativeData
1002
{
1070
     1
1070
     0
1002
}
  0
MTEXT
  5
4768
330
1F
100
AcDbEntity
  8
99注釈、説明
  6
Continuous
100
AcDbMText
 10
1010.062856186214
 20
3044.035247232618
 30
0.0
 40
80.0
 41
1086.771985925832
 71
     2
 72
     1
  1
\A1;歩道舗装工（乗入部）
  7
YOKO_GOTHIC
 73
     2
 44
0.6
1001
AcadAnnotative
1000
AnnotativeData
1002
{
1070
     1
1070
     0
1002
}
  0
LINE
  5
4769
330
1F
100
AcDbEntity
  8
99注釈、説明
100
AcDbLine
 10
481.8021313335121
 20
2920.684910300357
 30
0.0
 11
1545.149280462134
 21
2920.684910300375
 31
0.0
  0
MTEXT
  5
47A7
330
1F
100
AcDbEntity
  8
99注釈、説明
  6
Continuous
100
AcDbMText
 10
623.0877600109161
 20
1388.525372821725
 30
0.0
 40
70.0
 41
3240.268886752565
 71
     1
 72
     1
  3
\A1;・舗装復旧範囲については、所管の建設事務所と立ち会いし決定すること。\P・舗装の設計においては、神戸市開発事業に関する技術基準第２４条によるものとする。\P・舗装構成は、現地状況や交通量、通行する車種に応じて適宜変更すること。\P・縦断勾配７％以上と
  1
なる急坂路は、表層を密粒ギャップアスコンとすること。\P・軟弱地盤等やこの舗装構成によらない場合は、施工前に現場CBR試験を実施し、その結果を報告すること。なお、目標とするCBR値に満たない場合は地盤改良を行うものとし、改良内容について別途協議すること。
  7
YOKO_GOTHIC
 73
     2
 44
1.125
1001
AcadAnnotative
1000
AnnotativeData
1002
{
1070
     1
1070
     0
1002
}
1001
ACAD
1000
ACAD_MTEXT_DEFINED_HEIGHT_BEGIN
1070
    46
1040
697.9325719011565
1000
ACAD_MTEXT_DEFINED_HEIGHT_END
  0
MTEXT
  5
47E4
102
{ACAD_REACTORS
330
47EB
102
}
330
1F
100
AcDbEntity
  8
99注釈、説明
  6
Continuous
100
AcDbMText
 10
550.4433348690441
 20
1621.281061653872
 30
0.0
 40
80.0
 41
3240.268886752565
 71
     1
 72
     1
  1
\A1;注意点
  7
YOKO_GOTHIC
 73
     2
 44
1.125
1001
AcadAnnotative
1000
AnnotativeData
1002
{
1070
     1
1070
     0
1002
}
1001
ACAD
1000
ACAD_MTEXT_DEFINED_HEIGHT_BEGIN
1070
    46
1040
697.9325719011565
1000
ACAD_MTEXT_DEFINED_HEIGHT_END
  0
LINE
  5
47E7
102
{ACAD_REACTORS
330
47EB
102
}
330
1F
100
AcDbEntity
  8
99注釈、説明
100
AcDbLine
 10
524.5832038481462
 20
1668.254844770619
 30
0.0
 11
875.3942134580288
 21
1668.254844770619
 31
0.0
  0
LINE
  5
47E8
102
{ACAD_REACTORS
330
47EB
102
}
330
1F
100
AcDbEntity
  8
99注釈、説明
100
AcDbLine
 10
875.3942134580288
 20
1668.254844770619
 30
0.0
 11
875.3942134580288
 21
1488.951439858902
 31
0.0
  0
LINE
  5
47E9
102
{ACAD_REACTORS
330
47EB
102
}
330
1F
100
AcDbEntity
  8
99注釈、説明
100
AcDbLine
 10
875.3942134580288
 20
1488.951439858902
 30
0.0
 11
524.5832038481462
 21
1488.951439858902
 31
0.0
  0
LINE
  5
47EA
102
{ACAD_REACTORS
330
47EB
102
}
330
1F
100
AcDbEntity
  8
99注釈、説明
100
AcDbLine
 10
524.5832038481462
 20
1488.951439858902
 30
0.0
 11
524.5832038481462
 21
1668.254844770619
 31
0.0
  0
MTEXT
  5
486C
330
1F
100
AcDbEntity
  8
99注釈、説明
  6
Continuous
100
AcDbMText
 10
2946.067592311734
 20
4518.263639993222
 30
0.0
 40
80.0
 41
1086.771985925832
 71
     2
 72
     1
  1
\A1;車道舗装工（３号工）
  7
YOKO_GOTHIC
 73
     2
 44
0.6
1001
AcadAnnotative
1000
AnnotativeData
1002
{
1070
     1
1070
     0
1002
}
  0
LINE
  5
486D
330
1F
100
AcDbEntity
  8
99注釈、説明
100
AcDbLine
 10
2417.806867459032
 20
4394.913303060961
 30
0.0
 11
3481.154016587654
 21
4394.913303060979
 31
0.0
  0
MTEXT
  5
48A7
330
1F
100
AcDbEntity
  8
99注釈、説明
  6
Continuous
100
AcDbMText
 10
919.7539631907348
 20
4812.438971868383
 30
0.0
 40
150.0
 41
1086.771985925832
 71
     2
 72
     1
  1
\A1;歩道部
  7
YOKO_GOTHIC
 73
     2
 44
0.6
1001
AcadAnnotative
1000
AnnotativeData
1002
{
1070
     1
1070
     0
1002
}
  0
MTEXT
  5
48E1
330
1F
100
AcDbEntity
  8
99注釈、説明
  6
Continuous
100
AcDbMText
 10
2926.544229408832
 20
4794.442569266479
 30
0.0
 40
150.0
 41
1086.771985925832
 71
     2
 72
     1
  1
\A1;車道部
  7
YOKO_GOTHIC
 73
     2
 44
0.6
1001
AcadAnnotative
1000
AnnotativeData
1002
{
1070
     1
1070
     0
1002
}
  0
VIEWPORT
  5
62E7
102
{ACAD_XDICTIONARY
360
62E8
102
}
330
62E3
100
AcDbEntity
 67
     1
  8
0
100
AcDbViewport
 10
128.5
 20
97.5
 30
0.0
 40
314.226
 41
222.18
 68
     1
 69
     1
 12
128.5
 22
97.5
 13
0.0
 23
0.0
 14
10.0
 24
10.0
 15
10.0
 25
10.0
 16
0.0
 26
0.0
 36
1.0
 17
0.0
 27
0.0
 37
0.0
 42
50.0
 43
0.0
 44
0.0
 45
222.18
 50
0.0
 51
0.0
 72
   100
 90
   557088
  1

281
     0
 71
     1
 74
     0
110
0.0
120
0.0
130
0.0
111
1.0
121
0.0
131
0.0
112
0.0
122
1.0
132
0.0
 79
     0
146
0.0
  0
VIEWPORT
  5
62EA
102
{ACAD_XDICTIONARY
360
62EB
102
}
330
62E3
100
AcDbEntity
 67
     1
  8
05鉄筋
100
AcDbViewport
 10
128.5
 20
97.5
 30
0.0
 40
226.8041237113402
 41
160.3665521191294
 68
     2
 69
     2
 12
2261.363846499138
 22
3051.657906712424
 13
0.0
 23
0.0
 14
10.0
 24
10.0
 15
10.0
 25
10.0
 16
0.0
 26
0.0
 36
1.0
 17
0.0
 27
0.0
 37
0.0
 42
50.0
 43
0.0
 44
0.0
 45
5712.0
 50
0.0
 51
0.0
 72
   100
 90
   819808
  1

281
     0
 71
     1
 74
     0
110
0.0
120
0.0
130
0.0
111
1.0
121
0.0
131
0.0
112
0.0
122
1.0
132
0.0
 79
     0
146
0.0
  0
ENDSEC
  0
SECTION
  2
OBJECTS
  0
DICTIONARY
  5
C
330
0
100
AcDbDictionary
281
     1
  3
ACAD_CIP_PREVIOUS_PRODUCT_INFO
350
216
  3
ACAD_COLOR
350
6B
  3
ACAD_DETAILVIEWSTYLE
350
21B
  3
ACAD_DGNDEFINITIONS
350
242
  3
ACAD_DWFDEFINITIONS
350
241
  3
ACAD_GROUP
350
D
  3
ACAD_LAYOUT
350
1A
  3
ACAD_MATERIAL
350
6A
  3
ACAD_MLEADERSTYLE
350
12D
  3
ACAD_MLINESTYLE
350
17
  3
ACAD_PDFDEFINITIONS
350
240
  3
ACAD_PLOTSETTINGS
350
19
  3
ACAD_PLOTSTYLENAME
350
E
  3
ACAD_SCALELIST
350
10C
  3
ACAD_SECTIONVIEWSTYLE
350
219
  3
ACAD_TABLESTYLE
350
7E
  3
ACAD_VISUALSTYLE
350
EF
  3
ACDB_RECOMPOSE_DATA
350
63A3
  3
ACDBHEADERROUNDTRIPXREC
350
6359
  3
AcDbVariableDictionary
350
5E
  3
DWGPROPS
350
635C
  0
DICTIONARY
  5
6365
330
8
100
AcDbDictionary
280
     1
281
     1
  3
ACAD_XREC_ROUNDTRIP
360
6366
  0
DICTIONARY
  5
1FF
330
2
100
AcDbDictionary
280
     1
281
     1
  3
ACAD_LAYERSTATES
360
200
  3
ACLYDICTIONARY
360
6037
  0
DICTIONARY
  5
11F4
330
10
100
AcDbDictionary
280
     1
281
     1
  3
ADSK_XREC_LAYER_RECONCILED
360
11F5
  0
DICTIONARY
  5
233
330
231
100
AcDbDictionary
280
     1
281
     1
  3
ADSK_XREC_LAYER_RECONCILED
360
234
  0
DICTIONARY
  5
9CE
330
9CD
100
AcDbDictionary
280
     1
281
     1
  3
ADSK_XREC_LAYER_RECONCILED
360
9CF
  0
DICTIONARY
  5
11F1
330
AAE
100
AcDbDictionary
280
     1
281
     1
  3
ADSK_XREC_LAYER_RECONCILED
360
11F2
  0
DICTIONARY
  5
DAA
330
DA9
100
AcDbDictionary
280
     1
281
     1
  3
ADSK_XREC_LAYER_RECONCILED
360
DAB
  0
DICTIONARY
  5
DB7
330
DB6
100
AcDbDictionary
280
     1
281
     1
  3
ADSK_XREC_LAYER_RECONCILED
360
DB8
  0
DICTIONARY
  5
FF6
330
FF5
100
AcDbDictionary
280
     1
281
     1
  3
ADSK_XREC_LAYER_RECONCILED
360
FF7
  0
DICTIONARY
  5
226E
330
226D
100
AcDbDictionary
280
     1
281
     1
  3
ADSK_XREC_LAYER_RECONCILED
360
226F
  0
DICTIONARY
  5
2A27
330
2A26
100
AcDbDictionary
280
     1
281
     1
  3
ADSK_XREC_LAYER_RECONCILED
360
2A28
  0
DICTIONARY
  5
32A7
330
32A6
100
AcDbDictionary
280
     1
281
     1
  3
ADSK_XREC_LAYER_RECONCILED
360
32A8
  0
DICTIONARY
  5
357C
330
357B
100
AcDbDictionary
280
     1
281
     1
  3
ADSK_XREC_LAYER_RECONCILED
360
357D
  0
DICTIONARY
  5
3584
330
3583
100
AcDbDictionary
280
     1
281
     1
  3
ADSK_XREC_LAYER_RECONCILED
360
3585
  0
DICTIONARY
  5
5C2E
330
3586
100
AcDbDictionary
280
     1
281
     1
  3
ADSK_XREC_LAYER_RECONCILED
360
5C2F
  0
DICTIONARY
  5
5C30
330
374C
100
AcDbDictionary
280
     1
281
     1
  3
ADSK_XREC_LAYER_RECONCILED
360
5C31
  0
DICTIONARY
  5
427C
330
427B
100
AcDbDictionary
280
     1
281
     1
  3
ADSK_XREC_LAYER_RECONCILED
360
427D
  0
DICTIONARY
  5
4286
330
4285
100
AcDbDictionary
280
     1
281
     1
  3
ADSK_XREC_LAYER_RECONCILED
360
4287
  0
DICTIONARY
  5
4289
330
4288
100
AcDbDictionary
280
     1
281
     1
  3
ADSK_XREC_LAYER_RECONCILED
360
428A
  0
DICTIONARY
  5
8E4
330
1F
100
AcDbDictionary
280
     1
281
     1
  3
ACAD_SORTENTS
360
8E5
  0
DICTIONARY
  5
CBF
330
C8A
100
AcDbDictionary
280
     1
281
     1
  3
ACAD_SORTENTS
360
CC0
  0
DICTIONARY
  5
19CD
330
1998
100
AcDbDictionary
280
     1
281
     1
  3
ACAD_SORTENTS
360
19CE
  0
DICTIONARY
  5
2FEF
330
2FBA
100
AcDbDictionary
280
     1
281
     1
  3
ACAD_SORTENTS
360
2FF0
  0
DICTIONARY
  5
5ED3
330
5E9E
100
AcDbDictionary
280
     1
281
     1
  3
ACAD_SORTENTS
360
5ED4
  0
DICTIONARY
  5
635D
330
36A3
100
AcDbDictionary
280
     1
281
     1
  3
ACAD_MTEXT_RT
360
635E
  0
DICTIONARY
  5
635F
330
4624
100
AcDbDictionary
280
     1
281
     1
  3
ACAD_MTEXT_RT
360
6360
  0
DICTIONARY
  5
6361
330
472A
100
AcDbDictionary
280
     1
281
     1
  3
ACAD_MTEXT_RT
360
6362
  0
DICTIONARY
  5
62E8
330
62E7
100
AcDbDictionary
280
     1
281
     1
  3
ACAD_XREC_ROUNDTRIP
360
6363
  3
ASDK_XREC_ANNOTATION_SCALE_INFO
360
62E9
  0
DICTIONARY
  5
62EB
330
62EA
100
AcDbDictionary
280
     1
281
     1
  3
ACAD_XREC_ROUNDTRIP
360
6364
  3
ASDK_XREC_ANNOTATION_SCALE_INFO
360
62EC
  0
XRECORD
  5
216
102
{ACAD_REACTORS
330
C
102
}
330
C
100
AcDbXrecord
280
     1
300
ACD
300
2013
300
ACD_F_S
  0
DICTIONARY
  5
6B
102
{ACAD_REACTORS
330
C
102
}
330
C
100
AcDbDictionary
281
     1
  0
DICTIONARY
  5
21B
102
{ACAD_REACTORS
330
C
102
}
330
C
100
AcDbDictionary
281
     1
  3
Metric50
350
21C
  0
DICTIONARY
  5
242
102
{ACAD_REACTORS
330
C
102
}
330
C
100
AcDbDictionary
281
     1
  0
DICTIONARY
  5
241
102
{ACAD_REACTORS
330
C
102
}
330
C
100
AcDbDictionary
281
     1
  0
DICTIONARY
  5
D
102
{ACAD_REACTORS
330
C
102
}
330
C
100
AcDbDictionary
281
     1
  3
*A1
350
3FA8
  3
*A2
350
47EB
  0
DICTIONARY
  5
1A
102
{ACAD_REACTORS
330
C
102
}
330
C
100
AcDbDictionary
281
     1
  3
Model
350
22
  3
レイアウト1
350
62E4
  0
DICTIONARY
  5
6A
102
{ACAD_REACTORS
330
C
102
}
330
C
100
AcDbDictionary
281
     1
  3
ByBlock
350
ED
  3
ByLayer
350
EC
  3
Global
350
EE
  0
DICTIONARY
  5
12D
102
{ACAD_REACTORS
330
C
102
}
330
C
100
AcDbDictionary
281
     1
  3
Annotative
350
13B
  3
Standard
350
12E
  0
DICTIONARY
  5
17
102
{ACAD_REACTORS
330
C
102
}
330
C
100
AcDbDictionary
281
     1
  3
Standard
350
18
  0
DICTIONARY
  5
240
102
{ACAD_REACTORS
330
C
102
}
330
C
100
AcDbDictionary
281
     1
  0
DICTIONARY
  5
19
102
{ACAD_REACTORS
330
C
102
}
330
C
100
AcDbDictionary
281
     1
  0
ACDBDICTIONARYWDFLT
  5
E
102
{ACAD_REACTORS
330
C
102
}
330
C
100
AcDbDictionary
281
     1
  3
Normal
350
F
100
AcDbDictionaryWithDefault
340
F
  0
DICTIONARY
  5
10C
102
{ACAD_REACTORS
330
C
102
}
330
C
100
AcDbDictionary
281
     1
  3
A0
350
10D
  3
A1
350
1BE
  3
A2
350
1BF
  3
A3
350
1C0
  3
A4
350
1C1
  3
A5
350
1C2
  3
A6
350
1C3
  3
A7
350
1C4
  3
A8
350
1C5
  3
A9
350
1C6
  3
B0
350
1C7
  3
B1
350
1C8
  3
B2
350
1C9
  3
B3
350
1CA
  3
B4
350
1CB
  3
B5
350
1CC
  3
B6
350
1CD
  0
DICTIONARY
  5
219
102
{ACAD_REACTORS
330
C
102
}
330
C
100
AcDbDictionary
281
     1
  3
Metric50
350
21A
  0
DICTIONARY
  5
7E
102
{ACAD_REACTORS
330
C
102
}
330
C
100
AcDbDictionary
281
     1
  3
Standard
350
7F
  0
DICTIONARY
  5
EF
102
{ACAD_REACTORS
330
C
102
}
330
C
100
AcDbDictionary
281
     1
  3
2dWireframe
350
F5
  3
3dWireframe
350
3594
  3
Basic
350
F4
  3
Brighten
350
FB
  3
ColorChange
350
FF
  3
Conceptual
350
F8
  3
Dim
350
FA
  3
EdgeColorOff
350
1E6
  3
Facepattern
350
FE
  3
Flat
350
F0
  3
FlatWithEdges
350
F1
  3
Gouraud
350
F2
  3
GouraudWithEdges
350
F3
  3
Hidden
350
F7
  3
JitterOff
350
1E4
  3
Linepattern
350
FD
  3
OverhangOff
350
1E5
  3
Realistic
350
F9
  3
Shaded
350
1F3
  3
Shaded with edges
350
1F2
  3
Shades of Gray
350
1EF
  3
Sketchy
350
1F0
  3
Thicken
350
FC
  3
Wireframe
350
F6
  3
X-Ray
350
1F1
  0
XRECORD
  5
63A3
102
{ACAD_REACTORS
330
C
102
}
330
C
100
AcDbXrecord
280
     1
 90
        1
330
36A3
330
4624
330
472A
  0
DICTIONARY
  5
6359
102
{ACAD_REACTORS
330
C
102
}
330
C
100
AcDbDictionary
281
     1
  3
COLORDICT
350
635A
  3
MATERIALDICT
350
635B
  0
DICTIONARY
  5
5E
102
{ACAD_REACTORS
330
C
102
}
330
C
100
AcDbDictionary
281
     1
  3
CANNOSCALE
350
146
  3
CMLEADERSTYLE
350
145
  3
CTABLESTYLE
350
84
  3
CVIEWDETAILSTYLE
350
227
  3
CVIEWSECTIONSTYLE
350
228
  3
DIMASSOC
350
5F
  3
HIDETEXT
350
63
  3
LAYEREVAL
350
1AE
  3
LAYERNOTIFY
350
1AF
  3
MSLTSCALE
350
6367
  3
PSOLHEIGHT
350
6358
  3
PSOLWIDTH
350
6357
  3
XCLIPFRAME
350
22F
  0
XRECORD
  5
635C
102
{ACAD_REACTORS
330
C
102
}
330
C
100
AcDbXrecord
280
     1
  1
DWGPROPS COOKIE
  2

  3

  4

  6

  7

  8
sytemmetrixcoltd
  9

300
=
301
=
302
=
303
=
304
=
305
=
306
=
307
=
308
=
309
=
 40
0.0
 41
2459461.256232801
 42
2459850.309728704
  1

 90
        0
  0
XRECORD
  5
6366
102
{ACAD_REACTORS
330
6365
102
}
330
6365
100
AcDbXrecord
280
     1
102
VTR_0.000_0.000_1.000_1.000_VISUALSTYLE
340
F5
102
VTR_0.000_0.000_1.000_1.000_GRIDDISPLAY
 70
     3
102
VTR_0.000_0.000_1.000_1.000_GRIDMAJOR
 70
     5
102
VTR_0.000_0.000_1.000_1.000_DEFAULTLIGHTING
280
     1
102
VTR_0.000_0.000_1.000_1.000_DEFAULTLIGHTINGTYPE
 70
     1
102
VTR_0.000_0.000_1.000_1.000_BRIGHTNESS
141
0.0
102
VTR_0.000_0.000_1.000_1.000_CONTRAST
142
0.0
  0
DICTIONARY
  5
200
102
{ACAD_REACTORS
330
1FF
102
}
330
1FF
100
AcDbDictionary
281
     1
  0
DICTIONARY
  5
6037
102
{ACAD_REACTORS
330
1FF
102
}
330
1FF
100
AcDbDictionary
281
     1
1001
ACAD
1000
All
  0
XRECORD
  5
11F5
102
{ACAD_REACTORS
330
11F4
102
}
330
11F4
100
AcDbXrecord
280
     1
290
     0
  0
XRECORD
  5
234
102
{ACAD_REACTORS
330
233
102
}
330
233
100
AcDbXrecord
280
     1
290
     0
  0
XRECORD
  5
9CF
102
{ACAD_REACTORS
330
9CE
102
}
330
9CE
100
AcDbXrecord
280
     1
290
     0
  0
XRECORD
  5
11F2
102
{ACAD_REACTORS
330
11F1
102
}
330
11F1
100
AcDbXrecord
280
     1
290
     0
  0
XRECORD
  5
DAB
102
{ACAD_REACTORS
330
DAA
102
}
330
DAA
100
AcDbXrecord
280
     1
290
     0
  0
XRECORD
  5
DB8
102
{ACAD_REACTORS
330
DB7
102
}
330
DB7
100
AcDbXrecord
280
     1
290
     0
  0
XRECORD
  5
FF7
102
{ACAD_REACTORS
330
FF6
102
}
330
FF6
100
AcDbXrecord
280
     1
290
     0
  0
XRECORD
  5
226F
102
{ACAD_REACTORS
330
226E
102
}
330
226E
100
AcDbXrecord
280
     1
290
     0
  0
XRECORD
  5
2A28
102
{ACAD_REACTORS
330
2A27
102
}
330
2A27
100
AcDbXrecord
280
     1
290
     0
  0
XRECORD
  5
32A8
102
{ACAD_REACTORS
330
32A7
102
}
330
32A7
100
AcDbXrecord
280
     1
290
     0
  0
XRECORD
  5
357D
102
{ACAD_REACTORS
330
357C
102
}
330
357C
100
AcDbXrecord
280
     1
290
     1
  0
XRECORD
  5
3585
102
{ACAD_REACTORS
330
3584
102
}
330
3584
100
AcDbXrecord
280
     1
290
     1
  0
XRECORD
  5
5C2F
102
{ACAD_REACTORS
330
5C2E
102
}
330
5C2E
100
AcDbXrecord
280
     1
290
     0
  0
XRECORD
  5
5C31
102
{ACAD_REACTORS
330
5C30
102
}
330
5C30
100
AcDbXrecord
280
     1
290
     0
  0
XRECORD
  5
427D
102
{ACAD_REACTORS
330
427C
102
}
330
427C
100
AcDbXrecord
280
     1
290
     1
  0
XRECORD
  5
4287
102
{ACAD_REACTORS
330
4286
102
}
330
4286
100
AcDbXrecord
280
     1
290
     1
  0
XRECORD
  5
428A
102
{ACAD_REACTORS
330
4289
102
}
330
4289
100
AcDbXrecord
280
     1
290
     1
  0
SORTENTSTABLE
  5
8E5
102
{ACAD_REACTORS
330
8E4
102
}
330
8E4
100
AcDbSortentsTable
330
1F
331
0
  5
FDB
  0
SORTENTSTABLE
  5
CC0
102
{ACAD_REACTORS
330
CBF
102
}
330
CBF
100
AcDbSortentsTable
330
C8A
  0
SORTENTSTABLE
  5
19CE
102
{ACAD_REACTORS
330
19CD
102
}
330
19CD
100
AcDbSortentsTable
330
1998
  0
SORTENTSTABLE
  5
2FF0
102
{ACAD_REACTORS
330
2FEF
102
}
330
2FEF
100
AcDbSortentsTable
330
2FBA
  0
SORTENTSTABLE
  5
5ED4
102
{ACAD_REACTORS
330
5ED3
102
}
330
5ED3
100
AcDbSortentsTable
330
5E9E
  0
XRECORD
  5
635E
102
{ACAD_REACTORS
330
635D
102
}
330
635D
100
AcDbXrecord
280
     1
 40
623.0
  1
\A1;\pxt15;t =10cm×２層仕上げ
  0
XRECORD
  5
6360
102
{ACAD_REACTORS
330
635F
102
}
330
635F
100
AcDbXrecord
280
     1
 40
646.0
  1
\A1;\pxt15;（影響部は5cm）
  0
XRECORD
  5
6362
102
{ACAD_REACTORS
330
6361
102
}
330
6361
100
AcDbXrecord
280
     1
 40
1950.0
  1
\A1;\pxt15;（粒度調整砕石（0～4cm))
  0
XRECORD
  5
6363
102
{ACAD_REACTORS
330
62E8
102
}
330
62E8
100
AcDbXrecord
280
     1
102
VISUALSTYLE
340
F5
102
GRIDDISPLAY
 70
     2
102
GRIDMAJOR
 70
     5
102
DEFAULTLIGHTING
280
     1
102
DEFAULTLIGHTINGTYPE
 70
     1
102
BRIGHTNESS
141
0.0
102
CONTRAST
142
0.0
  0
XRECORD
  5
62E9
102
{ACAD_REACTORS
330
62E8
102
}
330
62E8
100
AcDbXrecord
280
     1
 90
        1
340
10D
  0
XRECORD
  5
6364
102
{ACAD_REACTORS
330
62EB
102
}
330
62EB
100
AcDbXrecord
280
     1
102
VISUALSTYLE
340
F5
102
GRIDDISPLAY
 70
     3
102
GRIDMAJOR
 70
     5
102
DEFAULTLIGHTING
280
     1
102
DEFAULTLIGHTINGTYPE
 70
     1
102
BRIGHTNESS
141
0.0
102
CONTRAST
142
0.0
  0
XRECORD
  5
62EC
102
{ACAD_REACTORS
330
62EB
102
}
330
62EB
100
AcDbXrecord
280
     1
 90
        1
340
10D
  0
ACDBDETAILVIEWSTYLE
  5
21C
102
{ACAD_REACTORS
330
21B
102
}
102
{ACAD_XDICTIONARY
360
8F2
102
}
330
21B
100
AcDbModelDocViewStyle
 70
     0
  3
Metric50
290
     1
100
AcDbDetailViewStyle
 70
     0
 71
     0
 90
        3
 71
     1
340
11
 40
5.0
340
0
 40
5.0
300

 40
0.0
280
     1
 71
     2
340
16
 90
       25
 71
     3
340
11
 40
5.0
 90
        0
 40
15.0
 90
        1
300
%<\AcVar ViewDetailId>% (%<\AcVar ViewScale \f "%sn">%)
 71
     4
340
16
 90
       25
340
16
 90
       25
280
     0
  0
GROUP
  5
3FA8
102
{ACAD_REACTORS
330
D
102
}
330
D
100
AcDbGroup
300

 70
     1
 71
     1
340
3FA7
340
3FA6
340
3FA5
340
3FA4
340
3FA3
340
3FA2
340
3FA1
340
3F9E
340
3F9D
340
3F9C
340
3F9B
340
3F9A
340
3F99
340
3F98
340
3F97
340
3F96
340
3F94
340
3F93
340
3CAB
340
3CA4
340
3CA3
340
3C9F
340
3C9A
340
3C95
340
3C94
340
3C93
340
3C91
340
3C90
340
3C86
340
3C85
340
3C83
340
3C81
340
3C7C
340
3C7B
340
3C78
340
3C77
340
3C6A
340
3C69
  0
GROUP
  5
47EB
102
{ACAD_REACTORS
330
D
102
}
330
D
100
AcDbGroup
300

 70
     1
 71
     1
340
47EA
340
47E9
340
47E8
340
47E7
340
47E4
  0
LAYOUT
  5
22
102
{ACAD_REACTORS
330
1A
102
}
102
{ACAD_XDICTIONARY
360
205
102
}
330
1A
100
AcDbPlotSettings
  1

  2
Microsoft Print to PDF
  4
A4
  6

 40
3.2
 41
3.2
 42
3.2
 43
3.2
 44
210.0
 45
297.0
 46
6.800000000000011
 47
5.300000000000011
 48
361.3638464991382
 49
251.6579067124239
140
4161.363846499138
141
5851.657906712424
142
1.0
143
20.0
 70
 11940
 72
     1
 73
     0
 74
     4
  7
Grayscale.ctb
 75
     0
147
1.0
148
-361.3638464991382
149
-251.6579067124239
100
AcDbLayout
  1
Model
 70
     1
 71
     0
 10
0.0
 20
0.0
 11
12.0
 21
9.0
 12
0.0
 22
0.0
 32
0.0
 14
361.3638464991382
 24
251.6579067124239
 34
0.0
 15
4161.363846499138
 25
5851.657906712424
 35
0.0
146
0.0
 13
0.0
 23
0.0
 33
0.0
 16
1.0
 26
0.0
 36
0.0
 17
0.0
 27
1.0
 37
0.0
 76
     0
330
1F
331
EA
1001
ACAD_PSEXT
1000
Microsoft Print to PDF
1000
Microsoft Print To PDF
1000
PORTPROMPT:
1000

1070
     0
1001
PLOTTRANSPARENCY
1071
        0
  0
LAYOUT
  5
62E4
102
{ACAD_REACTORS
330
1A
102
}
330
1A
100
AcDbPlotSettings
  1

  2
none_device
  4
ISO_A4_(210.00_x_297.00_MM)
  6

 40
7.5
 41
20.0
 42
7.5
 43
20.0
 44
210.0
 45
297.0
 46
0.0
 47
0.0
 48
0.0
 49
0.0
140
0.0
141
0.0
142
1.0
143
1.0
 70
   688
 72
     1
 73
     1
 74
     5
  7

 75
    16
147
1.0
148
0.0
149
0.0
100
AcDbLayout
  1
レイアウト1
 70
     1
 71
     1
 10
-20.0
 20
-7.5
 11
277.0
 21
202.5
 12
0.0
 22
0.0
 32
0.0
 14
15.0979381443299
 24
17.31672394043528
 34
0.0
 15
241.9020618556701
 25
177.6832760595647
 35
0.0
146
0.0
 13
0.0
 23
0.0
 33
0.0
 16
1.0
 26
0.0
 36
0.0
 17
0.0
 27
1.0
 37
0.0
 76
     0
330
62E3
331
62E7
  0
MATERIAL
  5
ED
102
{ACAD_REACTORS
330
6A
102
}
102
{ACAD_XDICTIONARY
360
1F9
102
}
330
6A
100
AcDbMaterial
  1
ByBlock
 73
     2
 78
     2
172
     2
176
     2
270
     2
274
     2
  0
MATERIAL
  5
EC
102
{ACAD_REACTORS
330
6A
102
}
102
{ACAD_XDICTIONARY
360
1F7
102
}
330
6A
100
AcDbMaterial
  1
ByLayer
 73
     2
 78
     2
172
     2
176
     2
270
     2
274
     2
  0
MATERIAL
  5
EE
102
{ACAD_REACTORS
330
6A
102
}
102
{ACAD_XDICTIONARY
360
173
102
}
330
6A
100
AcDbMaterial
  1
Global
 73
     2
 43
0.0007999999797903
 43
0.0
 43
0.0
 43
0.0
 43
0.0
 43
0.0007999999797903
 43
0.0
 43
0.0
 43
0.0
 43
0.0
 43
1.0
 43
0.0
 43
0.0
 43
0.0
 43
0.0
 43
1.0
 78
     2
172
     2
 49
0.0007999999797903
 49
0.0
 49
0.0
 49
0.0
 49
0.0
 49
0.0007999999797903
 49
0.0
 49
0.0
 49
0.0
 49
0.0
 49
1.0
 49
0.0
 49
0.0
 49
0.0
 49
0.0
 49
1.0
176
     2
142
0.0007999999797903
142
0.0
142
0.0
142
0.0
142
0.0
142
0.0007999999797903
142
0.0
142
0.0
142
0.0
142
0.0
142
1.0
142
0.0
142
0.0
142
0.0
142
0.0
142
1.0
270
     2
144
0.0007999999797903
144
0.0
144
0.0
144
0.0
144
0.0
144
0.0007999999797903
144
0.0
144
0.0
144
0.0
144
0.0
144
1.0
144
0.0
144
0.0
144
0.0
144
0.0
144
1.0
274
     2
1001
ACAD
1070
    -1
1070
     3
1070
     0
1000

1071
        0
1070
     0
  0
MLEADERSTYLE
  5
13B
102
{ACAD_REACTORS
330
12D
102
}
102
{ACAD_XDICTIONARY
360
636C
102
}
330
12D
100
AcDbMLeaderStyle
170
     2
171
     1
172
     0
 90
        2
 40
0.0
 41
0.0
173
     1
 91
-1056964608
340
14
 92
       -2
290
     1
 42
2.0
291
     1
 43
8.0
  3
Standard
341
0
 44
4.0
300

342
11
174
     1
178
     1
175
     1
176
     0
 93
-1056964608
 45
4.0
292
     0
297
     0
 46
4.0
343
0
 94
-1056964608
 47
1.0
 49
1.0
140
1.0
293
     1
141
0.0
294
     1
177
     0
142
1.0
295
     0
296
     1
143
3.75
1001
ACAD_MLEADERVER
1070
     2
  0
MLEADERSTYLE
  5
12E
102
{ACAD_REACTORS
330
12D
102
}
102
{ACAD_XDICTIONARY
360
636E
102
}
330
12D
100
AcDbMLeaderStyle
170
     2
171
     1
172
     0
 90
        2
 40
0.0
 41
0.0
173
     1
 91
-1056964608
340
14
 92
       -2
290
     1
 42
2.0
291
     1
 43
8.0
  3
Standard
341
0
 44
4.0
300

342
11
174
     1
178
     1
175
     1
176
     0
 93
-1056964608
 45
4.0
292
     0
297
     0
 46
4.0
343
0
 94
-1056964608
 47
1.0
 49
1.0
140
1.0
293
     1
141
0.0
294
     1
177
     0
142
1.0
295
     0
296
     0
143
3.75
1001
ACAD_MLEADERVER
1070
     2
  0
MLINESTYLE
  5
18
102
{ACAD_REACTORS
330
17
102
}
330
17
100
AcDbMlineStyle
  2
STANDARD
 70
     0
  3

 62
   256
 51
90.0
 52
90.0
 71
     2
 49
0.5
 62
   256
  6
BYLAYER
 49
-0.5
 62
   256
  6
BYLAYER
  0
ACDBPLACEHOLDER
  5
F
102
{ACAD_REACTORS
330
E
102
}
330
E
  0
SCALE
  5
10D
102
{ACAD_REACTORS
330
10C
102
}
330
10C
100
AcDbScale
 70
     0
300
1:1
140
1.0
141
1.0
290
     1
  0
SCALE
  5
1BE
102
{ACAD_REACTORS
330
10C
102
}
330
10C
100
AcDbScale
 70
     0
300
1:2
140
1.0
141
2.0
290
     0
  0
SCALE
  5
1BF
102
{ACAD_REACTORS
330
10C
102
}
330
10C
100
AcDbScale
 70
     0
300
1:4
140
1.0
141
4.0
290
     0
  0
SCALE
  5
1C0
102
{ACAD_REACTORS
330
10C
102
}
330
10C
100
AcDbScale
 70
     0
300
1:5
140
1.0
141
5.0
290
     0
  0
SCALE
  5
1C1
102
{ACAD_REACTORS
330
10C
102
}
330
10C
100
AcDbScale
 70
     0
300
1:8
140
1.0
141
8.0
290
     0
  0
SCALE
  5
1C2
102
{ACAD_REACTORS
330
10C
102
}
330
10C
100
AcDbScale
 70
     0
300
1:10
140
1.0
141
10.0
290
     0
  0
SCALE
  5
1C3
102
{ACAD_REACTORS
330
10C
102
}
330
10C
100
AcDbScale
 70
     0
300
1:16
140
1.0
141
16.0
290
     0
  0
SCALE
  5
1C4
102
{ACAD_REACTORS
330
10C
102
}
330
10C
100
AcDbScale
 70
     0
300
1:20
140
1.0
141
20.0
290
     0
  0
SCALE
  5
1C5
102
{ACAD_REACTORS
330
10C
102
}
330
10C
100
AcDbScale
 70
     0
300
1:30
140
1.0
141
30.0
290
     0
  0
SCALE
  5
1C6
102
{ACAD_REACTORS
330
10C
102
}
330
10C
100
AcDbScale
 70
     0
300
1:40
140
1.0
141
40.0
290
     0
  0
SCALE
  5
1C7
102
{ACAD_REACTORS
330
10C
102
}
330
10C
100
AcDbScale
 70
     0
300
1:50
140
1.0
141
50.0
290
     0
  0
SCALE
  5
1C8
102
{ACAD_REACTORS
330
10C
102
}
330
10C
100
AcDbScale
 70
     0
300
1:100
140
1.0
141
100.0
290
     0
  0
SCALE
  5
1C9
102
{ACAD_REACTORS
330
10C
102
}
330
10C
100
AcDbScale
 70
     0
300
2:1
140
2.0
141
1.0
290
     0
  0
SCALE
  5
1CA
102
{ACAD_REACTORS
330
10C
102
}
330
10C
100
AcDbScale
 70
     0
300
4:1
140
4.0
141
1.0
290
     0
  0
SCALE
  5
1CB
102
{ACAD_REACTORS
330
10C
102
}
330
10C
100
AcDbScale
 70
     0
300
8:1
140
8.0
141
1.0
290
     0
  0
SCALE
  5
1CC
102
{ACAD_REACTORS
330
10C
102
}
330
10C
100
AcDbScale
 70
     0
300
10:1
140
10.0
141
1.0
290
     0
  0
SCALE
  5
1CD
102
{ACAD_REACTORS
330
10C
102
}
330
10C
100
AcDbScale
 70
     0
300
100:1
140
100.0
141
1.0
290
     0
  0
ACDBSECTIONVIEWSTYLE
  5
21A
102
{ACAD_REACTORS
330
219
102
}
102
{ACAD_XDICTIONARY
360
8F4
102
}
330
219
100
AcDbModelDocViewStyle
 70
     0
  3
Metric50
290
     1
100
AcDbSectionViewStyle
 70
     0
 71
     0
 90
      102
 71
     1
340
11
 40
5.0
340
0
340
0
 40
5.0
300
I, O, Q, S, X, Z
 40
10.0
 90
        0
 40
2.5
 90
        0
 71
     2
340
16
 90
       25
340
16
 90
       50
 40
5.0
 40
2.5
 40
5.0
 71
     3
340
11
 40
5.0
 90
        0
 40
15.0
 90
        1
300
%<\AcVar ViewSectionStartId>%-%<\AcVar ViewSectionEndId>% (%<\AcVar ViewScale \f "%sn">%)
 71
     4
300
ANSI31
 40
1.0
 90
        0
290
     0
290
     0
 90
        6
 40
0.0
 40
1.570796326794897
 40
0.2617993877991494
 40
1.308996938995747
 40
-0.2617993877991494
 40
1.832595714594046
  0
TABLESTYLE
  5
7F
102
{ACAD_REACTORS
330
7E
102
}
330
7E
100
AcDbTableStyle
  3
Standard
 70
     0
 71
     0
 40
1.5
 41
1.5
280
     0
281
     0
  7
Standard
140
4.5
170
     2
 62
     0
 63
   257
283
     0
274
    -2
284
     1
 64
     0
275
    -2
285
     1
 65
     0
276
    -2
286
     1
 66
     0
277
    -2
287
     1
 67
     0
278
    -2
288
     1
 68
     0
279
    -2
289
     1
 69
     0
  7
Standard
140
6.0
170
     5
 62
     0
 63
   257
283
     0
274
    -2
284
     1
 64
     0
275
    -2
285
     1
 65
     0
276
    -2
286
     1
 66
     0
277
    -2
287
     1
 67
     0
278
    -2
288
     1
 68
     0
279
    -2
289
     1
 69
     0
  7
Standard
140
4.5
170
     5
 62
     0
 63
   257
283
     0
274
    -2
284
     1
 64
     0
275
    -2
285
     1
 65
     0
276
    -2
286
     1
 66
     0
277
    -2
287
     1
 67
     0
278
    -2
288
     1
 68
     0
279
    -2
289
     1
 69
     0
  0
VISUALSTYLE
  5
F5
102
{ACAD_REACTORS
330
EF
102
}
102
{ACAD_XDICTIONARY
360
6371
102
}
330
EF
100
AcDbVisualStyle
  2
2dWireframe
 70
     4
 71
     0
 72
     2
 73
     1
 90
        0
 40
0.6
 41
30.0
 62
     5
 63
     7
 74
     1
 91
        4
 64
     7
 65
   257
 75
     1
175
     1
 42
1.0
 92
        0
 66
   257
 43
1.0
 76
     1
 77
     6
 78
     2
 67
     7
 79
     5
170
     0
171
     0
290
     0
174
     0
 93
        1
 44
0.0
173
     0
291
     0
 45
0.0
1001
ACAD
1000
AcDbSavedByObjectVersion
1070
     0
  0
VISUALSTYLE
  5
3594
102
{ACAD_REACTORS
330
EF
102
}
102
{ACAD_XDICTIONARY
360
63A1
102
}
330
EF
100
AcDbVisualStyle
  2
3dWireframe
 70
     5
 71
     0
 72
     2
 73
     0
 90
        0
 40
-0.6
 41
-30.0
 62
     5
 63
     7
 74
     1
 91
        4
 64
     7
 65
   257
 75
     1
175
     1
 42
1.0
 92
        0
 66
   257
 43
1.0
 76
     1
 77
     6
 78
     2
 67
     7
 79
     5
170
     0
171
     0
290
     0
174
     0
 93
        1
 44
0.0
173
     0
291
     0
 45
0.0
1001
ACAD
1000
AcDbSavedByObjectVersion
1070
     0
  0
VISUALSTYLE
  5
F4
102
{ACAD_REACTORS
330
EF
102
}
102
{ACAD_XDICTIONARY
360
6373
102
}
330
EF
100
AcDbVisualStyle
  2
Basic
 70
     7
 71
     1
 72
     0
 73
     1
 90
        0
 40
0.6
 41
30.0
 62
     5
 63
     7
 74
     0
 91
        4
 64
     7
 65
   257
 75
     1
175
     1
 42
1.0
 92
        8
 66
     7
 43
1.0
 76
     1
 77
     6
 78
     2
 67
     7
 79
     5
170
     0
171
     0
290
     0
174
     0
 93
        1
 44
0.0
173
     0
291
     1
 45
0.0
1001
ACAD
1000
AcDbSavedByObjectVersion
1070
     0
  0
VISUALSTYLE
  5
FB
102
{ACAD_REACTORS
330
EF
102
}
102
{ACAD_XDICTIONARY
360
6375
102
}
330
EF
100
AcDbVisualStyle
  2
Brighten
 70
    12
 71
     2
 72
     2
 73
     1
 90
        0
 40
0.6
 41
30.0
 62
     5
 63
     7
 74
     1
 91
        4
 64
     7
 65
   257
 75
     1
175
     1
 42
1.0
 92
        8
 66
     7
 43
1.0
 76
     1
 77
     6
 78
     2
 67
     7
 79
     5
170
     0
171
     0
290
     0
174
     0
 93
        1
 44
50.0
173
     0
291
     1
 45
0.0
1001
ACAD
1000
AcDbSavedByObjectVersion
1070
     0
  0
VISUALSTYLE
  5
FF
102
{ACAD_REACTORS
330
EF
102
}
102
{ACAD_XDICTIONARY
360
6377
102
}
330
EF
100
AcDbVisualStyle
  2
ColorChange
 70
    16
 71
     2
 72
     2
 73
     3
 90
        0
 40
0.6
 41
30.0
 62
     5
 63
     8
 74
     1
 91
        4
 64
     7
 65
   257
 75
     1
175
     1
 42
1.0
 92
        8
 66
     8
 43
1.0
 76
     1
 77
     6
 78
     2
 67
     7
 79
     5
170
     0
171
     0
290
     0
174
     0
 93
        1
 44
0.0
173
     0
291
     1
 45
0.0
1001
ACAD
1000
AcDbSavedByObjectVersion
1070
     0
  0
VISUALSTYLE
  5
F8
102
{ACAD_REACTORS
330
EF
102
}
102
{ACAD_XDICTIONARY
360
6379
102
}
330
EF
100
AcDbVisualStyle
  2
Conceptual
 70
     9
 71
     3
 72
     2
 73
     1
 90
        0
 40
0.6
 41
30.0
 62
     5
 63
     7
 74
     2
 91
        2
 64
     7
 65
   257
 75
     1
175
     1
 42
40.0
 92
        8
 66
     7
 43
1.0
 76
     1
 77
     6
 78
     2
 67
     7
 79
     3
170
     0
171
     0
290
     0
174
     0
 93
        1
 44
0.0
173
     0
291
     0
 45
0.0
1001
ACAD
1000
AcDbSavedByObjectVersion
1070
     0
  0
VISUALSTYLE
  5
FA
102
{ACAD_REACTORS
330
EF
102
}
102
{ACAD_XDICTIONARY
360
637B
102
}
330
EF
100
AcDbVisualStyle
  2
Dim
 70
    11
 71
     2
 72
     2
 73
     1
 90
        0
 40
0.6
 41
30.0
 62
     5
 63
     7
 74
     1
 91
        4
 64
     7
 65
   257
 75
     1
175
     1
 42
1.0
 92
        8
 66
     7
 43
1.0
 76
     1
 77
     6
 78
     2
 67
     7
 79
     5
170
     0
171
     0
290
     0
174
     0
 93
        1
 44
-50.0
173
     0
291
     1
 45
0.0
1001
ACAD
1000
AcDbSavedByObjectVersion
1070
     0
  0
VISUALSTYLE
  5
1E6
102
{ACAD_REACTORS
330
EF
102
}
102
{ACAD_XDICTIONARY
360
637D
102
}
330
EF
100
AcDbVisualStyle
  2
EdgeColorOff
 70
    22
 71
     2
 72
     2
 73
     0
 90
        0
 40
0.6
 41
30.0
 62
     5
 63
     7
 74
     1
 91
        4
 64
     7
 65
   257
 75
     1
175
     1
 42
1.0
 92
        8
 66
     7
 43
1.0
 76
     1
 77
     6
 78
     2
 67
     7
 79
     5
170
     0
171
     0
290
     0
174
     0
 93
        1
 44
0.0
173
     0
291
     1
 45
0.0
1001
ACAD
1000
AcDbSavedByObjectVersion
1070
     0
  0
VISUALSTYLE
  5
FE
102
{ACAD_REACTORS
330
EF
102
}
102
{ACAD_XDICTIONARY
360
637F
102
}
330
EF
100
AcDbVisualStyle
  2
Facepattern
 70
    15
 71
     2
 72
     2
 73
     1
 90
        0
 40
0.6
 41
30.0
 62
     5
 63
     7
 74
     1
 91
        4
 64
     7
 65
   257
 75
     1
175
     1
 42
1.0
 92
        8
 66
     7
 43
1.0
 76
     1
 77
     6
 78
     2
 67
     7
 79
     5
170
     0
171
     0
290
     0
174
     0
 93
        1
 44
0.0
173
     0
291
     1
 45
0.0
1001
ACAD
1000
AcDbSavedByObjectVersion
1070
     0
  0
VISUALSTYLE
  5
F0
102
{ACAD_REACTORS
330
EF
102
}
102
{ACAD_XDICTIONARY
360
6381
102
}
330
EF
100
AcDbVisualStyle
  2
Flat
 70
     0
 71
     2
 72
     1
 73
     1
 90
        2
 40
0.6
 41
30.0
 62
     5
 63
     7
 74
     0
 91
        0
 64
     7
 65
   257
 75
     1
175
     1
 42
1.0
 92
        8
 66
     7
 43
1.0
 76
     1
 77
     6
 78
     2
 67
     7
 79
     5
170
     0
171
     0
290
     0
174
     0
 93
       13
 44
0.0
173
     0
291
     1
 45
0.0
1001
ACAD
1000
AcDbSavedByObjectVersion
1070
     0
  0
VISUALSTYLE
  5
F1
102
{ACAD_REACTORS
330
EF
102
}
102
{ACAD_XDICTIONARY
360
6383
102
}
330
EF
100
AcDbVisualStyle
  2
FlatWithEdges
 70
     1
 71
     2
 72
     1
 73
     1
 90
        2
 40
0.6
 41
30.0
 62
     5
 63
     7
 74
     1
 91
        0
 64
     7
 65
   257
 75
     1
175
     1
 42
1.0
 92
        0
 66
   257
 43
1.0
 76
     1
 77
     6
 78
     2
 67
     7
 79
     5
170
     0
171
     0
290
     0
174
     0
 93
       13
 44
0.0
173
     0
291
     1
 45
0.0
1001
ACAD
1000
AcDbSavedByObjectVersion
1070
     0
  0
VISUALSTYLE
  5
F2
102
{ACAD_REACTORS
330
EF
102
}
102
{ACAD_XDICTIONARY
360
6385
102
}
330
EF
100
AcDbVisualStyle
  2
Gouraud
 70
     2
 71
     2
 72
     2
 73
     1
 90
        2
 40
0.6
 41
30.0
 62
     5
 63
     7
 74
     0
 91
        0
 64
     7
 65
   257
 75
     1
175
     1
 42
1.0
 92
        0
 66
     7
 43
1.0
 76
     1
 77
     6
 78
     2
 67
     7
 79
     5
170
     0
171
     0
290
     0
174
     0
 93
       13
 44
0.0
173
     0
291
     1
 45
0.0
1001
ACAD
1000
AcDbSavedByObjectVersion
1070
     0
  0
VISUALSTYLE
  5
F3
102
{ACAD_REACTORS
330
EF
102
}
102
{ACAD_XDICTIONARY
360
6387
102
}
330
EF
100
AcDbVisualStyle
  2
GouraudWithEdges
 70
     3
 71
     2
 72
     2
 73
     1
 90
        2
 40
0.6
 41
30.0
 62
     5
 63
     7
 74
     1
 91
        0
 64
     7
 65
   257
 75
     1
175
     1
 42
1.0
 92
        0
 66
   257
 43
1.0
 76
     1
 77
     6
 78
     2
 67
     7
 79
     5
170
     0
171
     0
290
     0
174
     0
 93
       13
 44
0.0
173
     0
291
     1
 45
0.0
1001
ACAD
1000
AcDbSavedByObjectVersion
1070
     0
  0
VISUALSTYLE
  5
F7
102
{ACAD_REACTORS
330
EF
102
}
102
{ACAD_XDICTIONARY
360
6389
102
}
330
EF
100
AcDbVisualStyle
  2
Hidden
 70
     6
 71
     1
 72
     2
 73
     2
 90
        0
 40
0.6
 41
30.0
 62
     5
 63
     7
 74
     2
 91
        2
 64
     7
 65
   257
 75
     2
175
     1
 42
40.0
 92
        0
 66
   257
 43
1.0
 76
     1
 77
     6
 78
     2
 67
     7
 79
     3
170
     0
171
     0
290
     0
174
     0
 93
        1
 44
0.0
173
     0
291
     0
 45
0.0
1001
ACAD
1000
AcDbSavedByObjectVersion
1070
     0
  0
VISUALSTYLE
  5
1E4
102
{ACAD_REACTORS
330
EF
102
}
102
{ACAD_XDICTIONARY
360
638B
102
}
330
EF
100
AcDbVisualStyle
  2
JitterOff
 70
    20
 71
     2
 72
     2
 73
     0
 90
        0
 40
0.6
 41
30.0
 62
     5
 63
     7
 74
     1
 91
        4
 64
     7
 65
   257
 75
     1
175
     1
 42
1.0
 92
       10
 66
     7
 43
1.0
 76
     1
 77
     6
 78
     2
 67
     7
 79
     5
170
     0
171
     0
290
     0
174
     0
 93
        1
 44
0.0
173
     0
291
     1
 45
0.0
1001
ACAD
1000
AcDbSavedByObjectVersion
1070
     0
  0
VISUALSTYLE
  5
FD
102
{ACAD_REACTORS
330
EF
102
}
102
{ACAD_XDICTIONARY
360
638D
102
}
330
EF
100
AcDbVisualStyle
  2
Linepattern
 70
    14
 71
     2
 72
     2
 73
     1
 90
        0
 40
0.6
 41
30.0
 62
     5
 63
     7
 74
     1
 91
        4
 64
     7
 65
   257
 75
     7
175
     7
 42
1.0
 92
        8
 66
     7
 43
1.0
 76
     1
 77
     6
 78
     2
 67
     7
 79
     5
170
     0
171
     0
290
     0
174
     0
 93
        1
 44
0.0
173
     0
291
     1
 45
0.0
1001
ACAD
1000
AcDbSavedByObjectVersion
1070
     0
  0
VISUALSTYLE
  5
1E5
102
{ACAD_REACTORS
330
EF
102
}
102
{ACAD_XDICTIONARY
360
638F
102
}
330
EF
100
AcDbVisualStyle
  2
OverhangOff
 70
    21
 71
     2
 72
     2
 73
     0
 90
        0
 40
0.6
 41
30.0
 62
     5
 63
     7
 74
     1
 91
        4
 64
     7
 65
   257
 75
     1
175
     1
 42
1.0
 92
        9
 66
     7
 43
1.0
 76
     1
 77
     6
 78
     2
 67
     7
 79
     5
170
     0
171
     0
290
     0
174
     0
 93
        1
 44
0.0
173
     0
291
     1
 45
0.0
1001
ACAD
1000
AcDbSavedByObjectVersion
1070
     0
  0
VISUALSTYLE
  5
F9
102
{ACAD_REACTORS
330
EF
102
}
102
{ACAD_XDICTIONARY
360
6391
102
}
330
EF
100
AcDbVisualStyle
  2
Realistic
 70
     8
 71
     2
 72
     3
 73
     0
 90
        2
 40
0.6
 41
30.0
 62
     5
 63
     7
 74
     0
 91
        0
 64
     7
 65
   257
 75
     1
175
     1
 42
1.0
 92
        8
 66
   257
 43
1.0
 76
     1
 77
     6
 78
     2
 67
     7
 79
     3
170
     0
171
     0
290
     0
174
     0
 93
       13
 44
0.0
173
     0
291
     0
 45
0.0
1001
ACAD
1000
AcDbSavedByObjectVersion
1070
     0
  0
VISUALSTYLE
  5
1F3
102
{ACAD_REACTORS
330
EF
102
}
102
{ACAD_XDICTIONARY
360
6393
102
}
330
EF
100
AcDbVisualStyle
  2
Shaded
 70
    27
 71
     2
 72
     2
 73
     1
 90
        2
 40
0.6
 41
30.0
 62
     5
 63
     7
 74
     0
 91
        4
 64
     7
 65
   257
 75
     1
175
     1
 42
1.0
 92
        8
 66
   257
 43
1.0
 76
     1
 77
     6
 78
     2
 67
     8
 79
     3
170
     0
171
     0
290
     0
174
     0
 93
        5
 44
0.0
173
     0
291
     0
 45
0.0
1001
ACAD
1000
AcDbSavedByObjectVersion
1070
     0
  0
VISUALSTYLE
  5
1F2
102
{ACAD_REACTORS
330
EF
102
}
102
{ACAD_XDICTIONARY
360
6395
102
}
330
EF
100
AcDbVisualStyle
  2
Shaded with edges
 70
    26
 71
     2
 72
     2
 73
     1
 90
        2
 40
0.6
 41
30.0
 62
     5
 63
     7
 74
     1
 91
       10
 64
     7
 65
   257
 75
     2
175
     1
 42
1.0
 92
        8
 66
   257
 43
1.0
 76
     1
 77
     6
 78
     2
 67
     7
 79
     3
170
     0
171
     0
290
     0
174
     0
 93
        5
 44
0.0
173
     0
291
     0
 45
0.0
1001
ACAD
1000
AcDbSavedByObjectVersion
1070
     0
  0
VISUALSTYLE
  5
1EF
102
{ACAD_REACTORS
330
EF
102
}
102
{ACAD_XDICTIONARY
360
6397
102
}
330
EF
100
AcDbVisualStyle
  2
Shades of Gray
 70
    23
 71
     2
 72
     2
 73
     3
 90
        0
 40
0.6
 41
30.0
 62
     5
 63
     7
 74
     2
 91
        2
 64
     7
 65
     7
 75
     1
175
     1
 42
40.0
 92
        8
 66
     7
 43
1.0
 76
     1
 77
     6
 78
     2
 67
     7
 79
     3
170
     0
171
     0
290
     0
174
     0
 93
        1
 44
0.0
173
     0
291
     0
 45
0.0
1001
ACAD
1000
AcDbSavedByObjectVersion
1070
     0
  0
VISUALSTYLE
  5
1F0
102
{ACAD_REACTORS
330
EF
102
}
102
{ACAD_XDICTIONARY
360
6399
102
}
330
EF
100
AcDbVisualStyle
  2
Sketchy
 70
    24
 71
     1
 72
     2
 73
     2
 90
        0
 40
0.6
 41
30.0
 62
     5
 63
     7
 74
     2
 91
        2
 64
     7
 65
     7
 75
     1
175
     1
 42
40.0
 92
       11
 66
     7
 43
1.0
 76
     1
 77
     6
 78
     2
 67
     7
 79
     6
170
     0
171
     0
290
     0
174
     0
 93
        1
 44
0.0
173
     0
291
     0
 45
0.0
1001
ACAD
1000
AcDbSavedByObjectVersion
1070
     0
  0
VISUALSTYLE
  5
FC
102
{ACAD_REACTORS
330
EF
102
}
102
{ACAD_XDICTIONARY
360
639B
102
}
330
EF
100
AcDbVisualStyle
  2
Thicken
 70
    13
 71
     2
 72
     2
 73
     1
 90
        0
 40
0.6
 41
30.0
 62
     5
 63
     7
 74
     1
 91
        4
 64
     7
 65
   257
 75
     1
175
     1
 42
1.0
 92
       12
 66
     7
 43
1.0
 76
     1
 77
     6
 78
     2
 67
     7
 79
     5
170
     0
171
     0
290
     0
174
     0
 93
        1
 44
0.0
173
     0
291
     1
 45
0.0
1001
ACAD
1000
AcDbSavedByObjectVersion
1070
     0
  0
VISUALSTYLE
  5
F6
102
{ACAD_REACTORS
330
EF
102
}
102
{ACAD_XDICTIONARY
360
639D
102
}
330
EF
100
AcDbVisualStyle
  2
Wireframe
 70
     5
 71
     0
 72
     2
 73
     0
 90
        0
 40
0.6
 41
30.0
 62
     5
 63
     7
 74
     1
 91
        4
 64
     7
 65
   257
 75
     1
175
     1
 42
1.0
 92
        0
 66
   257
 43
1.0
 76
     1
 77
     6
 78
     2
 67
     7
 79
     3
170
     0
171
     0
290
     0
174
     0
 93
        1
 44
0.0
173
     0
291
     0
 45
0.0
1001
ACAD
1000
AcDbSavedByObjectVersion
1070
     0
  0
VISUALSTYLE
  5
1F1
102
{ACAD_REACTORS
330
EF
102
}
102
{ACAD_XDICTIONARY
360
639F
102
}
330
EF
100
AcDbVisualStyle
  2
X-Ray
 70
    25
 71
     2
 72
     2
 73
     1
 90
        1
 40
0.5
 41
30.0
 62
     5
 63
     7
 74
     1
 91
        0
 64
     7
 65
   257
 75
     1
175
     1
 42
1.0
 92
        8
 66
     7
 43
1.0
 76
     1
 77
     6
 78
     2
 67
     7
 79
     3
170
     0
171
     0
290
     0
174
     0
 93
       13
 44
0.0
173
     0
291
     0
 45
0.0
1001
ACAD
1000
AcDbSavedByObjectVersion
1070
     0
  0
XRECORD
  5
635A
102
{ACAD_REACTORS
330
6359
102
}
330
6359
100
AcDbXrecord
280
     1
340
6B
  0
XRECORD
  5
635B
102
{ACAD_REACTORS
330
6359
102
}
330
6359
100
AcDbXrecord
280
     1
340
6A
  0
DICTIONARYVAR
  5
146
102
{ACAD_REACTORS
330
5E
102
}
330
5E
100
DictionaryVariables
280
     0
  1
1:1
  0
DICTIONARYVAR
  5
145
102
{ACAD_REACTORS
330
5E
102
}
330
5E
100
DictionaryVariables
280
     0
  1
Standard
  0
DICTIONARYVAR
  5
84
102
{ACAD_REACTORS
330
5E
102
}
330
5E
100
DictionaryVariables
280
     0
  1
Standard
  0
DICTIONARYVAR
  5
227
102
{ACAD_REACTORS
330
5E
102
}
330
5E
100
DictionaryVariables
280
     0
  1
Metric50
  0
DICTIONARYVAR
  5
228
102
{ACAD_REACTORS
330
5E
102
}
330
5E
100
DictionaryVariables
280
     0
  1
Metric50
  0
DICTIONARYVAR
  5
5F
102
{ACAD_REACTORS
330
5E
102
}
330
5E
100
DictionaryVariables
280
     0
  1
2
  0
DICTIONARYVAR
  5
63
102
{ACAD_REACTORS
330
5E
102
}
330
5E
100
DictionaryVariables
280
     0
  1
1
  0
DICTIONARYVAR
  5
1AE
102
{ACAD_REACTORS
330
5E
102
}
330
5E
100
DictionaryVariables
280
     0
  1
0
  0
DICTIONARYVAR
  5
1AF
102
{ACAD_REACTORS
330
5E
102
}
330
5E
100
DictionaryVariables
280
     0
  1
0
  0
DICTIONARYVAR
  5
6367
102
{ACAD_REACTORS
330
5E
102
}
330
5E
100
DictionaryVariables
280
     0
  1
1
  0
DICTIONARYVAR
  5
6358
102
{ACAD_REACTORS
330
5E
102
}
330
5E
100
DictionaryVariables
280
     0
  1
80.000000
  0
DICTIONARYVAR
  5
6357
102
{ACAD_REACTORS
330
5E
102
}
330
5E
100
DictionaryVariables
280
     0
  1
5.000000
  0
DICTIONARYVAR
  5
22F
102
{ACAD_REACTORS
330
5E
102
}
330
5E
100
DictionaryVariables
280
     0
  1
0
  0
DICTIONARY
  5
8F2
330
21C
100
AcDbDictionary
280
     1
281
     1
  3
ACAD_XREC_ROUNDTRIP
360
6368
  0
DICTIONARY
  5
205
330
22
100
AcDbDictionary
280
     1
281
     1
  0
DICTIONARY
  5
1F9
330
ED
100
AcDbDictionary
280
     1
281
     1
  3
ACAD_XREC_ROUNDTRIP
360
6369
  3
FBXASSET
360
1FA
  0
DICTIONARY
  5
1F7
330
EC
100
AcDbDictionary
280
     1
281
     1
  3
ACAD_XREC_ROUNDTRIP
360
636A
  3
FBXASSET
360
1F8
  0
DICTIONARY
  5
173
330
EE
100
AcDbDictionary
280
     1
281
     1
  3
ACAD_XREC_ROUNDTRIP
360
636B
  3
FBXASSET
360
1FB
  0
DICTIONARY
  5
636C
330
13B
100
AcDbDictionary
280
     1
281
     1
  3
ACAD_XREC_ROUNDTRIP
360
636D
  0
DICTIONARY
  5
636E
330
12E
100
AcDbDictionary
280
     1
281
     1
  3
ACAD_XREC_ROUNDTRIP
360
636F
  0
DICTIONARY
  5
8F4
330
21A
100
AcDbDictionary
280
     1
281
     1
  3
ACAD_XREC_ROUNDTRIP
360
6370
  0
DICTIONARY
  5
6371
330
F5
100
AcDbDictionary
280
     1
281
     1
  3
ACAD_XREC_ROUNDTRIP
360
6372
  0
DICTIONARY
  5
63A1
330
3594
100
AcDbDictionary
280
     1
281
     1
  3
ACAD_XREC_ROUNDTRIP
360
63A2
  0
DICTIONARY
  5
6373
330
F4
100
AcDbDictionary
280
     1
281
     1
  3
ACAD_XREC_ROUNDTRIP
360
6374
  0
DICTIONARY
  5
6375
330
FB
100
AcDbDictionary
280
     1
281
     1
  3
ACAD_XREC_ROUNDTRIP
360
6376
  0
DICTIONARY
  5
6377
330
FF
100
AcDbDictionary
280
     1
281
     1
  3
ACAD_XREC_ROUNDTRIP
360
6378
  0
DICTIONARY
  5
6379
330
F8
100
AcDbDictionary
280
     1
281
     1
  3
ACAD_XREC_ROUNDTRIP
360
637A
  0
DICTIONARY
  5
637B
330
FA
100
AcDbDictionary
280
     1
281
     1
  3
ACAD_XREC_ROUNDTRIP
360
637C
  0
DICTIONARY
  5
637D
330
1E6
100
AcDbDictionary
280
     1
281
     1
  3
ACAD_XREC_ROUNDTRIP
360
637E
  0
DICTIONARY
  5
637F
330
FE
100
AcDbDictionary
280
     1
281
     1
  3
ACAD_XREC_ROUNDTRIP
360
6380
  0
DICTIONARY
  5
6381
330
F0
100
AcDbDictionary
280
     1
281
     1
  3
ACAD_XREC_ROUNDTRIP
360
6382
  0
DICTIONARY
  5
6383
330
F1
100
AcDbDictionary
280
     1
281
     1
  3
ACAD_XREC_ROUNDTRIP
360
6384
  0
DICTIONARY
  5
6385
330
F2
100
AcDbDictionary
280
     1
281
     1
  3
ACAD_XREC_ROUNDTRIP
360
6386
  0
DICTIONARY
  5
6387
330
F3
100
AcDbDictionary
280
     1
281
     1
  3
ACAD_XREC_ROUNDTRIP
360
6388
  0
DICTIONARY
  5
6389
330
F7
100
AcDbDictionary
280
     1
281
     1
  3
ACAD_XREC_ROUNDTRIP
360
638A
  0
DICTIONARY
  5
638B
330
1E4
100
AcDbDictionary
280
     1
281
     1
  3
ACAD_XREC_ROUNDTRIP
360
638C
  0
DICTIONARY
  5
638D
330
FD
100
AcDbDictionary
280
     1
281
     1
  3
ACAD_XREC_ROUNDTRIP
360
638E
  0
DICTIONARY
  5
638F
330
1E5
100
AcDbDictionary
280
     1
281
     1
  3
ACAD_XREC_ROUNDTRIP
360
6390
  0
DICTIONARY
  5
6391
330
F9
100
AcDbDictionary
280
     1
281
     1
  3
ACAD_XREC_ROUNDTRIP
360
6392
  0
DICTIONARY
  5
6393
330
1F3
100
AcDbDictionary
280
     1
281
     1
  3
ACAD_XREC_ROUNDTRIP
360
6394
  0
DICTIONARY
  5
6395
330
1F2
100
AcDbDictionary
280
     1
281
     1
  3
ACAD_XREC_ROUNDTRIP
360
6396
  0
DICTIONARY
  5
6397
330
1EF
100
AcDbDictionary
280
     1
281
     1
  3
ACAD_XREC_ROUNDTRIP
360
6398
  0
DICTIONARY
  5
6399
330
1F0
100
AcDbDictionary
280
     1
281
     1
  3
ACAD_XREC_ROUNDTRIP
360
639A
  0
DICTIONARY
  5
639B
330
FC
100
AcDbDictionary
280
     1
281
     1
  3
ACAD_XREC_ROUNDTRIP
360
639C
  0
DICTIONARY
  5
639D
330
F6
100
AcDbDictionary
280
     1
281
     1
  3
ACAD_XREC_ROUNDTRIP
360
639E
  0
DICTIONARY
  5
639F
330
1F1
100
AcDbDictionary
280
     1
281
     1
  3
ACAD_XREC_ROUNDTRIP
360
63A0
  0
XRECORD
  5
6368
102
{ACAD_REACTORS
330
8F2
102
}
330
8F2
100
AcDbXrecord
280
     1
102
DISPLAYNAME
  1
Metric50
102
FLAGS
 90
        0
  0
XRECORD
  5
6369
102
{ACAD_REACTORS
330
1F9
102
}
330
1F9
100
AcDbXrecord
280
     1
102
MATERIAL
148
0.0
149
0.0
149
0.0
 93
        0
 94
       63
282
     0
 72
     1
 77
     1
171
     1
175
     1
179
     1
273
     0
  0
XRECORD
  5
1FA
102
{ACAD_REACTORS
330
1F9
102
}
330
1F9
100
AcDbXrecord
280
     1
 70
     1
 90
429727718
  1
D62C5603-E3A1-4AEA-B7FB-FE5D8D0755AF
310
504B03040A0000080000CC70623B3DEE336E79000000790000001B0000006175746F6465736B2D64657369676E2D7061636B6167652E786D6C3C3F786D6C2076657273696F6E3D22312E302220656E636F64696E673D227574662D3822203F3E3C666F726D6174733E3C666F726D61743E687474703A2F2F736368656D612E
310
6175746F6465736B2E636F6D2F64657369676E2D7061636B6167652F323030393C2F666F726D61743E3C2F666F726D6174733E504B0304140006080800CC70623BD486FD9CA0000000F4000000130000005B436F6E74656E745F54797065735D2E786D6C7D8EC10E82300C865F65E91D8A1E8C310C0EEA1BF002731658846E
310
D98AC1B77784ABF1D8FE5FBFBF75BBCE937A534CCEB38643598122B6FEE978D0B0485F9C41B54DDD7D022595594E1A469170414C76A4D9A4D207E29CF43ECE46F218070CC6BECC4078ACAA135ACF422C856C0E68EA1BF5669944DDD7BCDE7B1F8E415D77AECB980613C2E4AC91FC167A2B244592486606FC29C8FD7F045B9A
310
EF7053A7E60B504B0304140006080800CC70623B853B8169EB0000007C01000008000000636F72652E786D6C8D90416EC3201045AF62CDB6C206821CC7C244919D9CA01740401C94182C03558F5F9C3852BBEB6A467FFE9B197D7EFC9E1EC5975982F5AE035262288C535E5B377690E21535501C055FBC8FBF6C503839990E
310
5619041F179FE64D52DE45E362569DD7661365082642A11EB9E920A89B99642953CC8E702F67A9EE7234257977194EC9EAE275C4EABCCF5EAD5940D4AC6F0E35A568B8F43562CD7046CD199FD07E60174276A7BE677B5EADB0E0D14EEFFB6A31321A0D82627C4084204C3F096B71DD52F6819B16635EADF63F509AF53FA164
310
5DDCD1EDDD17164090FCC8732078B56691CB33A85CD7DCC40F504B0304140006080800CC70623B55019EA25F0000007C00000007000000636E782E786D6C4DCB3B0E80201045D1AD90E915ED2CF8AC45050C11660C8261F98AB1B07AC9C97D42D718D865D3E909258CFD00CCE24AC6E326A164D74DC0B4128928FF32603847
310
2BA13128B1252AC747C6BAB984FC68F0B87FE8960A5C09FE86CFB69FBA01504B0304140006080800CC70623BDBABAAF470010000D40300000C0000006662782F636F72652E786D6CC553D16E823014FD95A6AF4B694182CC941A83FA05FB810A9511A125A5257EFE2E82712ECEB8A7F100CD39F7F69E734AF9FADC366850B6
310
AF8DCE7018308C942E4C59EB2AC3DE1D498AD15A706B8CFB56869196ADCAF00863C12B6B7C374385D14E6907A836A59A41D9F7CA615434B0C8705F7CAA5606D23BA8E84F41278B93AC54100640439DE0BDB320004D43C63716C7C399D30917DCFBBA9CD9BA8469F5B156168B24CED3F7248AC8769F27244EB73B92EED8862C
310
B7F13E0C179B3C8F979C8ECD82BBBABDAA2BAC924E9558448CBD9330242CFA08E3154B5651FCC6D215639C8EE5774DBE2B5F6CF2B5768B68963BB5F5588420E442FC700B1139D4CB01F450C1E918227C2E09DF070D8140C84E1E9AAB8F1340832A9CB13130A5F1376A908D57309505ECF2A0DF179C4E9D30F5B239B87E3823
310
7A79C6F31DE1A8A5AEC08474B03C7837EAE4938639B44E5932B833D2C6B6B279CDC613877FA26EE21F4A2A4C63EC7F29A2F301D1F9F7A0E37D145F504B0304140006080800CC70623B9C113CC27E0000009D0000000B0000006662782F636E782E786D6C4DCCDF0A83201C86E15B91DFB94BFB330DD428C8FB886521330DA7
310
6397BF1A1DECE883878F57749FCDA1B7892F1BBC047A23808C7F84D9FA55424E0BE6803A256208E9EF06C84F9B91703228B1C690F78B66B34CD9A5439DF5CF0BFBF65E35BCA1B8D6A5C6F540381E886698B5741C695F9503EBA150A2F8958E3DC3EA0B504B0304140006080800CC70623B7DF2F77C2A010000120200003100
310
00006662782F41393633353835312D344632462D344230382D423046372D3739314545314133324237412F636F72652E786D6C8D51DB8EC22014FC15C2939B0D2DB4B45643319AE817EC0F6041255A68B86CFCFC856D4D76DF7CE190393373060EDB3DC707F856CE6B6B7A480A0C81328395DA5C7B18C3057510EC3873D686
310
3F34088C18550F330C39BB3A1BA7051AAC09CA84841A2BD5020AEF55806078A44B0FFD7053A328440C89E1EFC52486BBB8AA8214A99D789CF9E05200300FC927E4FB4D5B375D43103D5527440FB843077C5AA3F5861C8F645F5787F59E95B390B318B55CE45AA638FAA2957BD7248B390B7A7CC51F9C124149C82B8C378810
310
84AB2F42B7B8DD56F413775B8C5999E9FF4471926F8AA236A1AE96B8B3CC434E5839373893369E1FAF30EA395917409EB7F26AF8801C171837A4A6AC9C89E9F9C9B1A58BA30FD6A5EF5DDDCF894B9AD9B6A59C957943A9FCAE2FD5BC4DFE03504B0304140006080800CC70623BAD7543B64E01000033030000300000006662
310
782F41393633353835312D344632462D344230382D423046372D3739314545314133324237412F636E782E786D6CD593CD6EC32010845F0571AD6CE3D48AD20813A9873E410FBD12D82434182C7EAAE6EDBB2424CD25871E7B41D6EC30B3FA84F9E67BB2E40B4234DE8DB46F1925E094D7C6ED479AD3AE5951B2113C789FEE
310
6C943839C1488B4C05DF079FE72A69D8C96C13AAD6B8631503449F83828872B949AC57D26200B826A308D316B4064D6E46FCDA41C05550DC9E483A00797BFD207EFB092A45DE9514C1BBD22178396BD39D891265658C238DEA00936C654E5E433CB65A26D9F6EDB5EBC14EBF49A45CB856E66048291F6939A9A81BB5C89177
310
38143CA680F4AA299D66A042CEB3354A2684DC9D8D178FE0D9B8B41CAAD720F880EE7EF93C0C18769E099ECC04D5A102C8049A8A05632F4DDF376CF1DE0F6BB65C2F8627B65A33C6BB62177CEBBDAD973006829F89F22E814B54F4BC2BE347F8AA8F681390B50FA73F804400B5F542E796F19FF974E7F78DB802FE05E20750
310
4B0304140006080800CC70623BE75B7789680500003C100000340000006662782F41393633353835312D344632462D344230382D423046372D3739314545314133324237412F6F626A656374732E786D6CAD575B8F9B3818FD2B887D06C22499CB8AA1CA655245D5B455A356FB305264C061D8018C6C3393D95FBFC7600890
310
A4CD5EF210B0B1BFEBF98E3F7B1FF6596ABC522E1296DF9BAE3D320D9A872C4AF2F8DE2CE5CEBA358D0FBEC719939D65A691938CDE9B6ADAF4BD98B3B2D05311DD91329583D9D5FC0F438434A7A611A644887B5384CF34233629258BA878B12322891DEFF6B66BD70BFB62634E8AE781D082709A4B588AF91C528CDA28B73F
310
1C998EEF39EABBEFA97FBD6A7C7E9553F9D3D79FE442923C3C523610337627CB87ABE99D359D4CC6D6E4FACAB5E6ABF9D2726FC6A3C5F56271377BB88362213924694B38DD99FE47C48627A1E7D49F5A8BB5E1A74C0A599ED3B0F21F1E56366B89112D681E218F0915D0D6F17AD41FBA2A369DCF6335D62ABBD39779D5DDD1
310
11D4D8DE3CBB96B2E04FB8202E41051754A1AA8E8F76B4C6DFE810B580B1547F4B84911149794252234D024EF8BBE963A95AE27B3D310A9D5C215C7960FAEE415ED75694C6AFB17BCACA5D99A60A9AA65F217B0BFC53292ACB92BF283FAD0D3621576592CB5BED907C2FA8E9DF794E35E97BEA31BED21FEB401ABB94C44839
310
DCACBF0E1C5DA8DA5B2F4DFFD32AD86F543D9E565E7056502E157C00AD2671CD534549AB752FCA9CDA00677A313F04E51B22FF19E57B300579E3C97EB29F682D92935CEC18CF901B7B54FD8C51F362B56FC72FE0B3C1EAE335EDCCBF5AEC39ADB17DC238973F804BA5E6F6BFE7AF1FB32E523BE9F3BD571418E3631DCA4D48
310
5250CF639223210A9446CA30052EDF057BD35F8329C1ECD84552BF0DC8D18BE7BCE23BFE6BD960AB4A7DE79923A103BEBD80F911CBAA2C60DB19B01CF164A5583B772EE6D3FFA56666CBCDA74DC97724A48F9A58967497E489C4D979006FD7A05E227A1EBDD0F737C623387A9C844D3709995625106D157315F8B8392CD4E0
310
A0B9A720C4BE9829CEF37EA1E13111214D53925356365ADA634861B52519DD27A00AEB808EAF0628E6F435519D446F45CF2C9CF5214F0A15B2F6D06B79DA3EE3CBF7F56780D2F4E7EF73A0F5E5B02A38D07DC852C6B7C1FBB6664213E0C39E3EBA7FF4E1AD23EA2829407C85E586727488B751B2DB9502BC7B228A3FD68B6E
310
A65A22397E690AA8D158D7E404EC8CDA235CC3B7D1898680131CEC2CDF2638C65196279577750F15884AEE19F94199155B92B13297978469D4F8D358DF0AEF7631E28DC8F0D9F437D5D39A83B2231A1D52D543813A824EF8D44BCFF2FA6A31BD1E8DAD87F1CCB526B3879935BF59CDADD5C37479BB1CDD4CA7B3556B516589
310
EF352754B706114D9C885EC9131DE6EFEB43D99AFE2391C2F958179413D7CFEF6B1B6DB1E7600F00DE6E5C67454A339A4BA2E0FBA85ED26F045D454F463DBFCE484C2F90F2E5E3666003662ED8F755951A7D1BECD5B30B550B2785C8E7320B7292A4838DDA71BBC863ED7613CAF659337A3354231D4FF4A182A54904C2898C
310
98B28C4AD0CE056CCF332A80986E571EE9DBC305BB5FEB7E509220A58D25CF042D712A806AC0AD0C657FDEF80D2D9CEAA2EE4D1C76F60BFE74219A06527D6F82DF6412526107381E55E353090704D085B52408A8913C4ED159D79BDA71BB4BC506F4831350EB6F975CD22D69BF7AC49B91A2C0A9DDA3D5CA36AD20FC478E37
310
E61844E2352865EBCB61A275A65283CAAA9DD27703B4102F5AF51EF5F573B75CBB5AD38BC845F7A49F82A0966A49C2E3EA5EA0ECD326CD965F1DB402C6FA8B51A4658C5C5E2EC9E214602E55810345408596591009A82E7E7FFACA19EEA299B14A0081A705CB3296EBC14CDF658DCD336EA6D1136881AAEB87B81AB9EE53D5
310
F5EB8BC8362082DA24122F98680A4E7930C01A0079749CEA14382A0783E5EBA5A10F8C098456A03D6A4AEB6BB881E2513747552A5DB22C7EDAF83BD5528081A365F7FF06504B0304140006080000CC70623B000000000000000000000000350000006662782F41393633353835312D344632462D344230382D423046372D37
310
39314545314133324237412F76657274696365732E62696E504B0304140006080800CC70623BF270F1330600000004000000360000006662782F41393633353835312D344632462D344230382D423046372D3739314545314133324237412F747269616E676C65732E62696E636660600000504B0304140006080000CC7062
310
3B000000000000000000000000370000006662782F41393633353835312D344632462D344230382D423046372D3739314545314133324237412F617474726962757465732E62696E504B0304140006080800CC70623B08DA0BD19000000041010000360000006662782F41393633353835312D344632462D344230382D4230
310
46372D3739314545314133324237412F6469726563746F72792E786D6C858F410AC3201045AF22B36F53E9A60B35CBEEBAE80D244E44489C6234F4F835464A48035D0DF398FF9F8AF63D0E6CC63039F212F8F9020C7D47C6792B21C5FE7403D62A1188E2E60C98D7234A5830286103A55745067B9D86B8A3CF9C7F90C11DE6
310
07FB144396D7B6A82D282E9A152AD114D5EF2CB866EEE831B8EEA07A7BB5A8D7D61A2BAAEB7FD5F70921FF497D00504B0304140006080800CC70623BEDD1DC58FD000000A00100003B0000006662782F41393633353835312D344632462D344230382D423046372D3739314545314133324237412F7265736F75726365732F
310
636F72652E786D6C8D504B6E833010BD0A9A6D65B00922041947112427E8052C33A156828DFCA97AFC9A40A576D7CDCCE87D344F8F9FBFE667F689CE6B6B3A6039850C8DB2A336530731DC4903D95970676DF82583CCC8193B5861107C72362E3BA4AC096842428D1D7107A5F7182053CF7474E0D507CE32973124857FE48B
310
540F3961CEF244279DE03EB81420DB9EAC1384436FA353E879B1B182C7A8C75DA3C7F453DF353A1075D537A7BA6464B8F535A99AE14A9A2BBD90E350DD183B5CFABE3AF262350B1EF4FC9351399401471025A527C218A1E53BAB5A5AB765F5469B96525EACF23FA6B88CFF34456DC2A1DCE36E360F82A5202F42F062ED2BAD
310
579969AFDD8A6F504B010214000A0000080000CC70623B3DEE336E79000000790000001B00000000000000000000000000000000006175746F6465736B2D64657369676E2D7061636B6167652E786D6C504B01021400140006080800CC70623BD486FD9CA0000000F40000001300000000000000000000000000B20000005B
310
436F6E74656E745F54797065735D2E786D6C504B01021400140006080800CC70623B853B8169EB0000007C010000080000000000000000000000000083010000636F72652E786D6C504B01021400140006080800CC70623B55019EA25F0000007C000000070000000000000000000000000094020000636E782E786D6C504B
310
01021400140006080800CC70623BDBABAAF470010000D40300000C00000000000000000000000000180300006662782F636F72652E786D6C504B01021400140006080800CC70623B9C113CC27E0000009D0000000B00000000000000000000000000B20400006662782F636E782E786D6C504B01021400140006080800CC70
310
623B7DF2F77C2A010000120200003100000000000000000000000000590500006662782F41393633353835312D344632462D344230382D423046372D3739314545314133324237412F636F72652E786D6C504B01021400140006080800CC70623BAD7543B64E010000330300003000000000000000000000000000D2060000
310
6662782F41393633353835312D344632462D344230382D423046372D3739314545314133324237412F636E782E786D6C504B01021400140006080800CC70623BE75B7789680500003C10000034000000000000000000000000006E0800006662782F41393633353835312D344632462D344230382D423046372D3739314545
310
314133324237412F6F626A656374732E786D6C504B01021400140006080000CC70623B0000000000000000000000003500000000000000000000000000280E00006662782F41393633353835312D344632462D344230382D423046372D3739314545314133324237412F76657274696365732E62696E504B01021400140006
310
080800CC70623BF270F133060000000400000036000000000000000000000000007B0E00006662782F41393633353835312D344632462D344230382D423046372D3739314545314133324237412F747269616E676C65732E62696E504B01021400140006080000CC70623B0000000000000000000000003700000000000000
310
000000000000D50E00006662782F41393633353835312D344632462D344230382D423046372D3739314545314133324237412F617474726962757465732E62696E504B01021400140006080800CC70623B08DA0BD1900000004101000036000000000000000000000000002A0F00006662782F41393633353835312D344632
310
462D344230382D423046372D3739314545314133324237412F6469726563746F72792E786D6C504B01021400140006080800CC70623BEDD1DC58FD000000A00100003B000000000000000000000000000E1000006662782F41393633353835312D344632462D344230382D423046372D3739314545314133324237412F7265
310
736F75726365732F636F72652E786D6C504B0506000000000E000E0080040000641100000000
  0
XRECORD
  5
636A
102
{ACAD_REACTORS
330
1F7
102
}
330
1F7
100
AcDbXrecord
280
     1
102
MATERIAL
148
0.0
149
0.0
149
0.0
 93
        0
 94
       63
282
     0
 72
     1
 77
     1
171
     1
175
     1
179
     1
273
     0
  0
XRECORD
  5
1F8
102
{ACAD_REACTORS
330
1F7
102
}
330
1F7
100
AcDbXrecord
280
     1
 70
     1
 90
429727718
  1
30362254-06B7-45E0-A893-8CFA70E3D6BC
310
504B03040A0000080000CC70623B3DEE336E79000000790000001B0000006175746F6465736B2D64657369676E2D7061636B6167652E786D6C3C3F786D6C2076657273696F6E3D22312E302220656E636F64696E673D227574662D3822203F3E3C666F726D6174733E3C666F726D61743E687474703A2F2F736368656D612E
310
6175746F6465736B2E636F6D2F64657369676E2D7061636B6167652F323030393C2F666F726D61743E3C2F666F726D6174733E504B0304140006080800CC70623BD486FD9CA0000000F4000000130000005B436F6E74656E745F54797065735D2E786D6C7D8EC10E82300C865F65E91D8A1E8C310C0EEA1BF002731658846E
310
D98AC1B77784ABF1D8FE5FBFBF75BBCE937A534CCEB38643598122B6FEE978D0B0485F9C41B54DDD7D022595594E1A469170414C76A4D9A4D207E29CF43ECE46F218070CC6BECC4078ACAA135ACF422C856C0E68EA1BF5669944DDD7BCDE7B1F8E415D77AECB980613C2E4AC91FC167A2B244592486606FC29C8FD7F045B9A
310
EF7053A7E60B504B0304140006080800CC70623B1EC5D7A3EB0000007C01000008000000636F72652E786D6C8D90416EC3201045AF82665B6103C6756C6122AB4D4ED00B204C5C94182C03558F5F9C3852BBEB6A467FFE9B197D71FC9E6FE8CBACC17AD7032D0820E3B41FAD9B7A48F1820F808E52ACDEC75F36404ECDA687
310
4D0629A6D5A76597B477D1B89855E747B38B2A041301E95B6E7A08FAD3CCAA50296647B8168BD2573599823EBB0CA76447F43862C7BCCF5EAC59410E4DDD9C7973C2755553CCCFA4C603E3040F1565ED3B1FDE4E432BCA0D9622DAF9795FAF464533826484B498524CD807E51D79ED187F21878E10516EF63F505AC67F42C9
310
BA58B1FDDD071640D2FCC87D2045B96591CB3DA85CB7DCE40F504B0304140006080800CC70623B55019EA25F0000007C00000007000000636E782E786D6C4DCB3B0E80201045D1AD90E915ED2CF8AC45050C11660C8261F98AB1B07AC9C97D42D718D865D3E909258CFD00CCE24AC6E326A164D74DC0B4128928FF32603847
310
2BA13128B1252AC747C6BAB984FC68F0B87FE8960A5C09FE86CFB69FBA01504B0304140006080800CC70623B8C9102E971010000D40300000C0000006662782F636F72652E786D6CC5535B6E833010BC8AE5DF0A6C08340F1947A84D4ED00B38C6A128602363A31CBFCB234A53A551FA553EC09AD9F5CE8C31DB9E9B1AF5CA
310
7695D1198E428A91D2D214952E33ECDD315861B4E5CC1AE3BE9561A445A3323CC098B3D21ADFCE9034DA29ED00D5A6503328BA4E398C640D8B0C77F253352214DE4145770A5B214FA2546114020D759C75CE8200340D19DE981F0F6746269C33EFAB6266AB02A655C74A59CCF365BADC27CB5D902ED22848F6340DF238A141
310
BE88E2F57B92BFEDF23523433367AE6A2EEAA455C2A902F398D2751045018D3FA264435F3771F242571B4A1919CA6F9A7C5B3CD9E42BED16F12C776AEB308F40C848FC700B1139D4891EF410CEC810227CC6846F8386402064270EF5C5C709A05E49676C024C61FC95EA45ED154CA5211D1FF4FB8291A913A68E9B83EBBB33
310
E2A7673CDE118E5AE8124C0807CB8377834E366998436B950D7A7746DAD846D4CFD978E0F04FD455FC5D49D2D4C6FE9722321F10997F0F32DC47FE05504B0304140006080800CC70623BFFEA85907E0000009D0000000B0000006662782F636E782E786D6C4DCCD10A83201886E15B91FFDC95D95A811AB6F23E625948A6C3
310
E9D8E5AF46073BFAE0E1E365ED67B3E8ADC3CB78C7815C7240DA3DFC64DCC221C519D7805AC182F7F1EF06C88D9BE6703008B6049F9E274D7A1E938DBB5AE3D6131B2589BA0D3D965551E0B2EA732C9B9A624AAEB41E3A557677029960D9AFB4EF11165F504B0304140006080800CC70623B4FEEA4082C0100001202000031
310
0000006662782F39464131463745442D413632322D343644302D413938332D3331353338454246344243312F636F72652E786D6C8D515B6EC32010BC0AE2AB55850DD871ED0813254D72825EC00192A2C460F1A872FC42ED48ED5F7E00CDCECCCEB26C731F6FE05B39AFADE921293004CA082BB5B9F43086336A21D870E6AC
310
0D7F68109861543DCC30E4ECE26C9C164858139409093556AA051CBC570102714B8F1E7AF1A5C6A11862480C7F2DA6415C878B2A4891CA89C7990F2E050073937C42DE1DB7E4F87ED8A36D4329AA9B3D46DBAEAD504556557BD81DEBDD0761E52CE42C462D17B996298E3E6BE59E35C962CE821E1FF18553435012728A7187
310
0841987E927A8D9B35ADDF70BBC6989599FE4F1427F9A4286A132ABAC49D651EF234CD5CE04CDA78BA3DC2A8FB645D00B9DF8B57E215725C60BCA2A463E54C4CE327C7A65E1C7DB02E7DEFCBF594B864C5CA6CDBD49C957943E9FA5D5FBAF336F90F504B0304140006080800CC70623BAD7543B64E01000033030000300000
310
006662782F39464131463745442D413632322D343644302D413938332D3331353338454246344243312F636E782E786D6CD593CD6EC32010845F0571AD6CE3D48AD20813A9873E410FBD12D82434182C7EAAE6EDBB2424CD25871E7B41D6EC30B3FA84F9E67BB2E40B4234DE8DB46F1925E094D7C6ED479AD3AE5951B2113C
310
789FEE6C943839C1488B4C05DF079FE72A69D8C96C13AAD6B8631503449F83828872B949AC57D26200B826A308D316B4064D6E46FCDA41C05550DC9E483A00797BFD207EFB092A45DE9514C1BBD22178396BD39D891265658C238DEA00936C654E5E433CB65A26D9F6EDB5EBC14EBF49A45CB856E66048291F6939A9A81BB5
310
C8917738143CA680F4AA299D66A042CEB3354A2684DC9D8D178FE0D9B8B41CAAD720F880EE7EF93C0C18769E099ECC04D5A102C8049A8A05632F4DDF376CF1DE0F6BB65C2F8627B65A33C6BB62177CEBBDAD973006829F89F22E814B54F4BC2BE347F8AA8F681390B50FA73F804400B5F542E796F19FF974E7F78DB802FE05
310
E207504B0304140006080800CC70623B16AB87BA640500003C100000340000006662782F39464131463745442D413632322D343644302D413938332D3331353338454246344243312F6F626A656374732E786D6CAD575B6FA33818FD2B887DE6924B3BED8A326A92B68A663B534DD4D13E548A0C38942D60649B369D5FBFC7
310
600890A493BDE42160637FD7F31D7FF63E6FB3D478A55C242CBF3247B66B1A340F5994E4F19559CA8D75611A9F7D8F33263BCB4C232719BD32D5B4E97B316765A1A722BA21652A07B3B7B33F0D11D29C9A46981221AE4C113ED38CD8A4942CA2E2C58E882476BCD9DA23BB5ED8171B73523C0F841684D35CC252CCE79062D4
310
468DFA43D7747CCF51DF7D4FFDEB5593E3AB9CCA9FBEFE241792E4E19EB28198C968BAB8199F5D5A67D3E9C49A9E8F47D6EC76B6B0469F26EEFC7C3EBFBCBEB98462213924694B38DD98FE1D62C393D073EA4FADC5DAF04326852CCF6958F90F0F2B9BB5C48816348F90C7840A68EB78EDF68723159BCEE7891A6B95DDE9D3
310
BCEAEEE8086A6C6F9E5D4B59F0175C10A7A0820BAA5055C7473B5AE3CFDD452D602CD5DF12616444529E90D448938013FE6EFA58AA96F85E4F8C42275708571E98FE6827AF6B2B4AE3D7D83D64E5A64C53054DD3AF90BD06FEA9149565C94FCA0F6B834DC85599E4F2423B24DF0B6AFA979E534DFA9E7A4CC6FA631D486393
310
921829879BF5D781A373557BCB85E97FB90DB62B558F8795179C15944B051F40AB495CF35451D26A4727654E6D8033BD98EF82F21D91FF8AF2DD9982BCF1643BDD4EB516C9492E368C67C88DED563FC36D5EACF66DFF057C3658BDBFA69DF9578B3DA735B64F18C7F20770A9D45CFCF7FCF563D6456A277DBEF78A02637CA2
310
43B90A490AEAB94F72244481D24819A6C0E59B606BFA4B3025981DBB48EAB701D97BF19C577CC77F2D1B6C55A9EF3C732474C0B727303F625995056C3B02963D9EAC146BE78EC5FCEC7FA999EBC5EACBAAE41B12D27B4D2C0BBA49F244E2ECDC81B76B502F113D8F5EE8FB1BE3111CDD4FC2AA9B844CAB1288B68AB90A7CDC
310
1C166AB0D3DC5310625FCC14E779BFD0709F8890A629C9292B1B2DED31A4B0DA928CEE135085754027E3018A397D4D5427D15BD1330B677DC8934285AC3DF45A9EB68FF8F2B8FC0A509AFEECFD0FF2DE25CC6047F7214B195F07EFEB9A094D800F7BFAE8FED187B78EA8A3A400F115961BCAD1215E47C966530AF0EE8128FE
310
58CEBB996A8964FFA529A046635D9353B0336A8F700DDF46271A024E70B0B37C9DE01847591E54DED53D54202AB947E4076556AC49C6CA5C9E1226B7F1A7B1BE15DEED62C41B91E1B3E9AFAAA735036547343A925075041DF0A9979E893B391F8FCFA6967B3EFB644DCF6E5CEBFAE272625DCC6FAF3FB93793C5F90CE1EF57
310
407342756B10D1C489E8953CD1617E5CEECAD6F4EF8914CE5D5D504E5C3F1F9736DA62CFC11E00BCDDB8CC8A9466349744C1F75EBDA4DF09BA8A9E8C7A7E9991989E20E5DBDD6A6003664ED8F7A04A8DBE0DF6EAD9B9AA858342E47399053949D2C146EDB85DE4B176BB0965FBAC19BD19AA918E27FA50C1D22402E144464C
310
59462568E704B6E71915404CB72B8FF4EDE184DDAF753F284990D2C6926782963815403548A70C657FDEF80D2D9CEAA2AE4C1C76F60BFE74219A06527D6582DF6412526107381E55E353090704D085B52408D0933C4ED159D79BDA71BB4BC506F4831350EB6F979CD22D69BF7AC49B91A2C0A9DDA3D5CA36AD20FC478E37E6
310
1844E2352865EBCB6EA275A652E3836BE04EFB400BF1A2556F515F1FBB35B2AB35BD889C744FFA1004B5544B121E57F70215746DD2F5E2C1412B602CBF19455AC6C8E5E9922C4E01E65215385004546899059180EAFCF7A707CE7017CD8CDB0410789AB32C63B91E5CEBBBACB17AC6CD347A022D5075FD106377347AAABA7E
310
7D11590744509B44E205134DC1290F06580320F78E537D3D73540E06CB970B431F185308AD40BBD794D6D77003C5A36E8EAA54BA64597CD8F83BD552A080A365F7FF06504B0304140006080000CC70623B000000000000000000000000350000006662782F39464131463745442D413632322D343644302D413938332D3331
310
353338454246344243312F76657274696365732E62696E504B0304140006080800CC70623BF270F1330600000004000000360000006662782F39464131463745442D413632322D343644302D413938332D3331353338454246344243312F747269616E676C65732E62696E636660600000504B0304140006080000CC70623B
310
000000000000000000000000370000006662782F39464131463745442D413632322D343644302D413938332D3331353338454246344243312F617474726962757465732E62696E504B0304140006080800CC70623B08DA0BD19000000041010000360000006662782F39464131463745442D413632322D343644302D413938
310
332D3331353338454246344243312F6469726563746F72792E786D6C858F410AC3201045AF22B36F53E9A60B35CBEEBAE80D244E44489C6234F4F835464A48035D0DF398FF9F8AF63D0E6CC63039F212F8F9020C7D47C6792B21C5FE7403D62A1188E2E60C98D7234A5830286103A55745067B9D86B8A3CF9C7F90C11DE607
310
FB144396D7B6A82D282E9A152AD114D5EF2CB866EEE831B8EEA07A7BB5A8D7D61A2BAAEB7FD5F70921FF497D00504B0304140006080800CC70623B0D6EF93BFE000000A00100003B0000006662782F39464131463745442D413632322D343644302D413938332D3331353338454246344243312F7265736F75726365732F63
310
6F72652E786D6C8D50596E833010BD0A9ADFCA60B334011947A8694ED00B586642AC041B79A97AFC9A40A5F6AF3F33A3B7689E1E3F7DCD8FEC139DD7D6F4C0720A191A65476DA61E62B892236427C19DB5E1970C322367EC618541F0C9D9B8EC90B226A009093576C41D94DE63804C3DD2D18357379C652E63480A7FCF17A9
310
EE72C29CE5894E3AC17D702940B63D59270887DE46A7D0F36263058F518FBB468FE9A7BE6A7420864373B8D4873369AA8691FA421B3294352543C5CAF65C0F6FEF43CB8BD52C78D0F34F46E550061C419494B6843142CB0F5677F4B52BEB177AEC28E5C52AFF638ACBF84F53D42654E51E77B379102C05791282176B5F693D
310
CB4C7BED567C03504B010214000A0000080000CC70623B3DEE336E79000000790000001B00000000000000000000000000000000006175746F6465736B2D64657369676E2D7061636B6167652E786D6C504B01021400140006080800CC70623BD486FD9CA0000000F40000001300000000000000000000000000B20000005B
310
436F6E74656E745F54797065735D2E786D6C504B01021400140006080800CC70623B1EC5D7A3EB0000007C010000080000000000000000000000000083010000636F72652E786D6C504B01021400140006080800CC70623B55019EA25F0000007C000000070000000000000000000000000094020000636E782E786D6C504B
310
01021400140006080800CC70623B8C9102E971010000D40300000C00000000000000000000000000180300006662782F636F72652E786D6C504B01021400140006080800CC70623BFFEA85907E0000009D0000000B00000000000000000000000000B30400006662782F636E782E786D6C504B01021400140006080800CC70
310
623B4FEEA4082C0100001202000031000000000000000000000000005A0500006662782F39464131463745442D413632322D343644302D413938332D3331353338454246344243312F636F72652E786D6C504B01021400140006080800CC70623BAD7543B64E010000330300003000000000000000000000000000D5060000
310
6662782F39464131463745442D413632322D343644302D413938332D3331353338454246344243312F636E782E786D6C504B01021400140006080800CC70623B16AB87BA640500003C1000003400000000000000000000000000710800006662782F39464131463745442D413632322D343644302D413938332D3331353338
310
454246344243312F6F626A656374732E786D6C504B01021400140006080000CC70623B0000000000000000000000003500000000000000000000000000270E00006662782F39464131463745442D413632322D343644302D413938332D3331353338454246344243312F76657274696365732E62696E504B01021400140006
310
080800CC70623BF270F133060000000400000036000000000000000000000000007A0E00006662782F39464131463745442D413632322D343644302D413938332D3331353338454246344243312F747269616E676C65732E62696E504B01021400140006080000CC70623B0000000000000000000000003700000000000000
310
000000000000D40E00006662782F39464131463745442D413632322D343644302D413938332D3331353338454246344243312F617474726962757465732E62696E504B01021400140006080800CC70623B08DA0BD190000000410100003600000000000000000000000000290F00006662782F39464131463745442D413632
310
322D343644302D413938332D3331353338454246344243312F6469726563746F72792E786D6C504B01021400140006080800CC70623B0D6EF93BFE000000A00100003B000000000000000000000000000D1000006662782F39464131463745442D413632322D343644302D413938332D3331353338454246344243312F7265
310
736F75726365732F636F72652E786D6C504B0506000000000E000E0080040000641100000000
  0
XRECORD
  5
636B
102
{ACAD_REACTORS
330
173
102
}
330
173
100
AcDbXrecord
280
     1
102
MATERIAL
148
0.0
149
0.0
149
0.0
 93
        0
 94
       63
282
     0
 72
     1
 77
     1
171
     1
175
     1
179
     1
273
     0
  0
XRECORD
  5
1FB
102
{ACAD_REACTORS
330
173
102
}
330
173
100
AcDbXrecord
280
     1
 70
     0
 90
1673772943
  1
ECE7A1D2-D628-4531-984C-D00F80459256
310
504B03040A0000080000CC70623B3DEE336E79000000790000001B0000006175746F6465736B2D64657369676E2D7061636B6167652E786D6C3C3F786D6C2076657273696F6E3D22312E302220656E636F64696E673D227574662D3822203F3E3C666F726D6174733E3C666F726D61743E687474703A2F2F736368656D612E
310
6175746F6465736B2E636F6D2F64657369676E2D7061636B6167652F323030393C2F666F726D61743E3C2F666F726D6174733E504B0304140006080800CC70623BD486FD9CA0000000F4000000130000005B436F6E74656E745F54797065735D2E786D6C7D8EC10E82300C865F65E91D8A1E8C310C0EEA1BF002731658846E
310
D98AC1B77784ABF1D8FE5FBFBF75BBCE937A534CCEB38643598122B6FEE978D0B0485F9C41B54DDD7D022595594E1A469170414C76A4D9A4D207E29CF43ECE46F218070CC6BECC4078ACAA135ACF422C856C0E68EA1BF5669944DDD7BCDE7B1F8E415D77AECB980613C2E4AC91FC167A2B244592486606FC29C8FD7F045B9A
310
EF7053A7E60B504B0304140006080800CC70623BD9DDAED0EC0000007C01000008000000636F72652E786D6C8D90416EC3201045AF82665B61836D9CD8C2444DD39CA01740405C94182C03558F5F9C3852BBEB6A467FFE9B197D7EF89E6EE8CB2CC17A37002D0820E394D7D68D03A478C17B4007C117EFE32F1B20272733C0
310
2A83E0E3E2D3BC49CABB685CCCAAF3DA6CA20CC14440EA969B0182FA34932C648AD911AEC52CD5558EA6A0CF2EC329598D1E47ACCEFBECC59A050463A7EA5833865FEBDD0E37353BE3EE8DBDE3F6786A48D375FBF6CC78B9C282473B3DEFABC5C86834888A900E538A49F5419B9EB47DD5BC907D4F082F57FB1F28CDFA9F50
310
B22ED6D5F6EE030B20687EE43E10BC5CB3C8E51E54AE6B6EE207504B0304140006080800CC70623B55019EA25F0000007C00000007000000636E782E786D6C4DCB3B0E80201045D1AD90E915ED2CF8AC45050C11660C8261F98AB1B07AC9C97D42D718D865D3E909258CFD00CCE24AC6E326A164D74DC0B4128928FF326038
310
472BA13128B1252AC747C6BAB984FC68F0B87FE8960A5C09FE86CFB69FBA01504B0304140006080800CC70623BA24EB22D72010000D40300000C0000006662782F636F72652E786D6CC5535B6E833010BC8AE5DF0A6C5E49888CA3A6694ED00B38E05014B091B1518EDFE511A5A9D228FD2A1F60CDEC7A67C6986DCE4D8D7A
310
69BA4AAB0C073EC548AA5C17952A33ECECD15B61B4E1CC686DBF9561A44423333CC098B3D268D7CE50AE9595CA02AA74216750749DB418E5352C32DCE59FB211BE70162ABA93DF8AFC244AE9073ED050C759670D0840D390E18DF9F1706664C23973AE2A66B62A605A75ACA4C13C4976E1364A12EF355A2EBD384AF65EFA96
310
BC7B8BED2EA6719AAE16FB8491A199335B351775B991C2CA02F390D2D40B028F861F41BCA68B7518BFD0D59A524686F29B26D7164F36B94AD9289CE54E6D1DE6010819891F6E21228B3AD1831EC219194284CF98F06DD01008846CC5A1BEF83801D4CBDC6A1303536877A57A513B0953A94FC707FDBE6064EA84A9E3E6E0FA
310
EE8CF0E9198F7784A316AA0413C2C2F2E0ECA0934D1AE6D05A69BCDE9E91D2A611F573361E38FC1375157F5752AE6B6DFE4B11990F88CCBF0719EE23FF02504B0304140006080800CC70623B408A7D3B7C0000009D0000000B0000006662782F636E782E786D6C4DCCD10A83201886E15B91FFDC552A92A0064DBC8F581632
310
D3703A76F9ABD1C18E3E78F878E5F0D9027ABBFCF2292AE86E2D20171F69F6715550CB827B40839639A5F2770314A7CD293819B45C73AAFB45B35BA61ACAA1C1C7E7855C58C15BC331339661262CC762340413D68D77DA5B42298546CBE6573AF60CEB2F504B0304140006080800CC70623B449FB9BD290100001202000031
310
0000006662782F36394639363044362D344446342D343946362D394244322D3234314243333846323333332F636F72652E786D6C8D515B6EC32010BC0AE22B55850D98B871848994463E412FE002495162B07854397EA176A4F62F3F2C9A9D991D587EB84F37F0AD7D30CEF6905418026DA553C65E7A98E219ED203808EE9D
310
8B7F6810D871D23D2C3014FCE25D9A57483A1BB58D19B54EE9151C43D0110279CB971E06F9A5A7B11A53CC8C70ADE6515EC78BAE4895DB992778883E0700CB907242D17643D7E2538BD869608875438BBAE38922CAC8F1BDD90DB4691A5E2F42C153326A951B95E398B3D1FE599322163C9AE9115F7A3D46ADA0A018778810
310
84E907617BDCEE297BC5BB3DC6BC2EF47FA234AB2745C9D8D8D035EE220B50105E2F0DC1954B9FB747187D9F9D8FA0CCDB042D5FA0C015C65B42DF78BD10F3F3B363CB56C7109DCFDFBBB97E662ED92EB62D13BC2E1BCAE5777DB9966D8A1F504B0304140006080800CC70623BAD7543B64E01000033030000300000006662
310
782F36394639363044362D344446342D343946362D394244322D3234314243333846323333332F636E782E786D6CD593CD6EC32010845F0571AD6CE3D48AD20813A9873E410FBD12D82434182C7EAAE6EDBB2424CD25871E7B41D6EC30B3FA84F9E67BB2E40B4234DE8DB46F1925E094D7C6ED479AD3AE5951B2113C789FEE
310
6C943839C1488B4C05DF079FE72A69D8C96C13AAD6B8631503449F83828872B949AC57D26200B826A308D316B4064D6E46FCDA41C05550DC9E483A00797BFD207EFB092A45DE9514C1BBD22178396BD39D891265658C238DEA00936C654E5E433CB65A26D9F6EDB5EBC14EBF49A45CB856E66048291F6939A9A81BB5C89177
310
38143CA680F4AA299D66A042CEB3354A2684DC9D8D178FE0D9B8B41CAAD720F880EE7EF93C0C18769E099ECC04D5A102C8049A8A05632F4DDF376CF1DE0F6BB65C2F8627B65A33C6BB62177CEBBDAD973006829F89F22E814B54F4BC2BE347F8AA8F681390B50FA73F804400B5F542E796F19FF974E7F78DB802FE05E20750
310
4B0304140006080800CC70623B8D05915C650500003B100000340000006662782F36394639363044362D344446342D343946362D394244322D3234314243333846323333332F6F626A656374732E786D6CAD575B6FA33814FE2B887D06429276DA1565D4266D158D3A339A6846FB502932E050B66023DB74D2FDF5FB190C01
310
9276B2973C046C8ECFF53B17071F77456EBD502133CEAE6CDF9DD81665314F32965ED995DA3A17B6F5310C04E7AA47665B8C14F4CAD6DB7618A48257A5D94AE89654B91AEDDEDDFC61C998326A5B714EA4BCB265FC440BE2924AF184CA6737218AB8E976E7FA6E4338649B0A523E8D98964450A6A029F619B8588D52FE7039
310
B1BD30F0F4F730D0FF866AF6369557DB33949F31A9088B0F848DD8CCFCF9F2767A76E99CCDE733677E3EF59D9BBB9BA5E37F984D16E78BC5E5F5ED25044B25C0C96822E8D60EEFE11B91C581D77CEA34368A1F5329E68CD1B8B61F16D63A1B8E092D294B10C78C4A48EB593D192E7DED9BDEE7995E1B91FDEDD3ACEA9FE831
310
6A756F9F7D4D79F4274C90A7A04248AA51D5F8C718DAE06FB2F75AC4796EBE65D22A88A22223B995679120E2D50E41AA49C260C046A35368846B0BECD0DFF3EBEB8AD4F835768F69B9ADF25C43D30E6B646F807FAA64AD59F61715C7A54127C4AACA98BA3006A9D792DAE165E0D59B61A01FB3A9F9D838D2DAE62445C86166
310
F37564E842E7DE6A69879FEEA2DD5AE7E371E1A5E025154AC307D06A03D73EB5978C58FFA4C8E9033066E0F3BD53BEC1F39F91BE7B55103791EDE6BBB991A2046172CB4581D8B893FA674DDA17A77B3B7C413D1B511FD2743BFF8A38F03A658705E3ADF8015C3A3417FF3D7E439FF591DA0B5F18BC20C1B8981957AE6392A3
310
F43C640C01D1A0B4728E2DD4F26DB4B3C3152A252A3B4E913CEC1C72F012782FF88EFF8637AA552DBEF76408E8A8DE9E50F9E1CB3A2DA0DB1B6039A893B56063DC5B3E3FFB5F72E67AB9FEB4AEC496C4F4C1149625DD662C53E89D7BF0F6151A046260D1337DFDC94502430F83B0EE07A130A224BCAD7DAE1D9FB6CD422FF6
310
920702629C4BB9AE79C12F243C6432A6794E18E5552BA56B431AAB5D91317302B2B071E86C3A42B1A02F999E24061403B5D0EB639195DA655DD3EBEAB4FB862DDF579F014AD0E73C22F99E28DA57FB98E75C6CA2D74D53086D600F4786E0FE3144B771A8A7B900F03594DB8A633CBC49B2EDB69228BB479CF863B5E807AAAB
310
23872F6DFEB4129B949CA33823F58830E86D65621E10047D9DB34D862E8EAC3C2ABC2F7B2C40D67CDFE01F5545B92105AF983AC54D93D69E56FB8E797F88913F898A9FEC705D3F9D1B54EC8426FB500D40A03BD0119B06E1B95DDC7EB8F6975367793EBD70E66733DFB9BC982F9CE564727731999F5D4ECFCE3B8D6A4DC2A0
310
6D50FD148437D110834A64C6CDDF57FBACB5C307A2A477DFE4939736CFEF2B175371E0E10CF0DD1D5C15654E0BCA14D1E87DD02FF93782A162C0A3D95F1524A52770F972BF1EE9809D13CE7DD599467F8ECE9ADD85CE85A34CD45355448C64F9E8A031DC2D596ACC6E5DD93D9B82DE2EF5CAF81363A8E47996A0DE24564A79
310
4115AACE09C55E14540231FDA13C319787134EBF34E3A022514E5B4D9E0826E25C02D5805B15ABE1BEF51B26383D445DD9E875EE33FE4C22DA16427D65A3BCA92CA6D28DD01DF5DC53330704308475351050232CCD31583787BA75774AFB06E5070DD0C8EF484E19968C5D83BA5B90B244D31E54D55A372320FE4786B7EA58
310
44E135AA5467CB7EA333A61683CC6A8C3257034C10CF46F40EF9F5BE59BE5BD30C3C72D235E95D10345C1D45445A5F0BB47E46A5EBE5570F9380B5FA629579952296A773720405982B9DE04011506178964401AA8BDF1FBF0A8EAB6861DD6580C0E38217056766716DAEB2D6FA0917D3E4116581EADB879C4E7CFFB11EFACD
310
3D641311495D92C8676CB409A72D18610D803CE8A626049E8EC1887CB5B44CC39883690DDA8399B4B9855B481E7D71D4A9D22F96E5BB73BF5793020C02137BF837504B0304140006080000CC70623B000000000000000000000000350000006662782F36394639363044362D344446342D343946362D394244322D32343142
310
43333846323333332F76657274696365732E62696E504B0304140006080800CC70623BF270F1330600000004000000360000006662782F36394639363044362D344446342D343946362D394244322D3234314243333846323333332F747269616E676C65732E62696E636660600000504B0304140006080000CC70623B0000
310
00000000000000000000370000006662782F36394639363044362D344446342D343946362D394244322D3234314243333846323333332F617474726962757465732E62696E504B0304140006080800CC70623B08DA0BD19000000041010000360000006662782F36394639363044362D344446342D343946362D394244322D
310
3234314243333846323333332F6469726563746F72792E786D6C858F410AC3201045AF22B36F53E9A60B35CBEEBAE80D244E44489C6234F4F835464A48035D0DF398FF9F8AF63D0E6CC63039F212F8F9020C7D47C6792B21C5FE7403D62A1188E2E60C98D7234A5830286103A55745067B9D86B8A3CF9C7F90C11DE607FB14
310
4396D7B6A82D282E9A152AD114D5EF2CB866EEE831B8EEA07A7BB5A8D7D61A2BAAEB7FD5F70921FF497D00504B0304140006080800CC70623BCA768048FE000000A00100003B0000006662782F36394639363044362D344446342D343946362D394244322D3234314243333846323333332F7265736F75726365732F636F72
310
652E786D6C8D50596E833010BD0A9ADFCA60D600328E9AA639412F609909B1126CE4A5EAF16B0295DABFFECC8CDEA2797AECF8353F924FB44E193D409E5248504B332A3D0D10FC95B4901C39B3C6F85F3248B49871801506CE266BC2B243D2688FDA47549B11775038871E12F988C7004EDE7016A9083E2ADC3D5D84BC8B09
310
D33C8D74D471E6BC8D0192EDC93A815B742658898E651BCB59086ADC356A8C3FD555A1055ED7E7E254D615792D0F075295F585746FF53B694EE78A565DD736979A65AB9933AFE69F8CD2A2F038022F28ED489E135A7CE4554F9BBEA85E68DB53CAB255FEC71496F19FA6A0B42F8B3DEE6673C0F318E4497096AD7DC5F52C33
310
EEB55BFE0D504B010214000A0000080000CC70623B3DEE336E79000000790000001B00000000000000000000000000000000006175746F6465736B2D64657369676E2D7061636B6167652E786D6C504B01021400140006080800CC70623BD486FD9CA0000000F40000001300000000000000000000000000B20000005B436F
310
6E74656E745F54797065735D2E786D6C504B01021400140006080800CC70623BD9DDAED0EC0000007C010000080000000000000000000000000083010000636F72652E786D6C504B01021400140006080800CC70623B55019EA25F0000007C000000070000000000000000000000000095020000636E782E786D6C504B0102
310
1400140006080800CC70623BA24EB22D72010000D40300000C00000000000000000000000000190300006662782F636F72652E786D6C504B01021400140006080800CC70623B408A7D3B7C0000009D0000000B00000000000000000000000000B50400006662782F636E782E786D6C504B01021400140006080800CC70623B
310
449FB9BD290100001202000031000000000000000000000000005A0500006662782F36394639363044362D344446342D343946362D394244322D3234314243333846323333332F636F72652E786D6C504B01021400140006080800CC70623BAD7543B64E010000330300003000000000000000000000000000D20600006662
310
782F36394639363044362D344446342D343946362D394244322D3234314243333846323333332F636E782E786D6C504B01021400140006080800CC70623B8D05915C650500003B10000034000000000000000000000000006E0800006662782F36394639363044362D344446342D343946362D394244322D32343142433338
310
46323333332F6F626A656374732E786D6C504B01021400140006080000CC70623B0000000000000000000000003500000000000000000000000000250E00006662782F36394639363044362D344446342D343946362D394244322D3234314243333846323333332F76657274696365732E62696E504B010214001400060808
310
00CC70623BF270F13306000000040000003600000000000000000000000000780E00006662782F36394639363044362D344446342D343946362D394244322D3234314243333846323333332F747269616E676C65732E62696E504B01021400140006080000CC70623B00000000000000000000000037000000000000000000
310
00000000D20E00006662782F36394639363044362D344446342D343946362D394244322D3234314243333846323333332F617474726962757465732E62696E504B01021400140006080800CC70623B08DA0BD190000000410100003600000000000000000000000000270F00006662782F36394639363044362D344446342D
310
343946362D394244322D3234314243333846323333332F6469726563746F72792E786D6C504B01021400140006080800CC70623BCA768048FE000000A00100003B000000000000000000000000000B1000006662782F36394639363044362D344446342D343946362D394244322D3234314243333846323333332F7265736F
310
75726365732F636F72652E786D6C504B0506000000000E000E0080040000621100000000
  0
XRECORD
  5
636D
102
{ACAD_REACTORS
330
636C
102
}
330
636C
100
AcDbXrecord
280
     1
102
ACAD_ROUNDTRIP_2010_MLEADER_STYLE
  0
XRECORD
  5
636F
102
{ACAD_REACTORS
330
636E
102
}
330
636E
100
AcDbXrecord
280
     1
102
ACAD_ROUNDTRIP_2010_MLEADER_STYLE
  0
XRECORD
  5
6370
102
{ACAD_REACTORS
330
8F4
102
}
330
8F4
100
AcDbXrecord
280
     1
102
DISPLAYNAME
  1
Metric50
102
FLAGS
 90
        0
  0
XRECORD
  5
6372
102
{ACAD_REACTORS
330
6371
102
}
330
6371
100
AcDbXrecord
280
     1
102
RTVSPropertyOp0
 70
     1
102
RTVSPropertyOp1
 70
     1
102
RTVSPropertyOp2
 70
     1
102
RTVSPropertyOp3
 70
     1
102
RTVSPropertyOp4
 70
     1
102
RTVSPropertyOp5
 70
     1
102
RTVSPropertyOp6
 70
     1
102
RTVSPropertyOp7
 70
     1
102
RTVSPropertyOp8
 70
     1
102
RTVSPropertyOp9
 70
     1
102
RTVSPropertyOp10
 70
     1
102
RTVSPropertyOp11
 70
     1
102
RTVSPropertyOp12
 70
     1
102
RTVSPropertyOp13
 70
     1
102
RTVSPropertyOp14
 70
     1
102
RTVSPropertyOp15
 70
     1
102
RTVSPropertyOp16
 70
     1
102
RTVSPropertyOp17
 70
     1
102
RTVSPropertyOp18
 70
     1
102
RTVSPropertyOp19
 70
     1
102
RTVSPropertyOp20
 70
     1
102
RTVSPropertyOp21
 70
     1
102
RTVSPropertyOp22
 70
     1
102
RTVSPropertyOp23
 70
     1
102
RTVSPropertyOp24
 70
     1
102
RTVSPropertyOp25
 70
     1
102
RTVSPropertyOp26
 70
     1
102
RTVSPropertyOp27
 70
     1
102
RTVSPropertyOp28
 70
     1
102
RTVSPropertyOp29
 70
     1
102
RTVSPropertyOp30
 70
     1
102
RTVSPropertyOp31
 70
     1
102
RTVSPropertyOp32
 70
     1
102
RTVSPropertyOp33
 70
     1
102
RTVSPropertyOp34
 70
     1
102
RTVSPropertyOp35
 70
     1
102
RTVSPropertyOp36
 70
     1
102
RTVSPropertyOp37
 70
     1
102
RTVSPropertyOp38
 70
     1
102
RTVSPropertyOp39
 70
     1
102
RTVSPropertyOp40
 70
     1
102
RTVSPropertyOp41
 70
     1
102
RTVSPropertyOp42
 70
     1
102
RTVSPropertyOp43
 70
     1
102
RTVSPropertyOp44
 70
     1
102
RTVSPropertyOp45
 70
     1
102
RTVSPropertyOp46
 70
     1
102
RTVSPropertyOp47
 70
     1
102
RTVSPropertyOp48
 70
     1
102
RTVSPropertyOp49
 70
     1
102
RTVSPropertyOp50
 70
     1
102
RTVSPropertyOp51
 70
     0
102
RTVSPropertyOp52
 70
     0
102
RTVSPropertyOp53
 70
     1
102
RTVSPropertyOp54
 70
     1
102
RTVSPropertyOp55
 70
     1
102
RTVSPropertyOp56
 70
     1
102
RTVSPropertyOp57
 70
     1
102
RTVSPost2010Prop28
280
     1
102
RTVSPost2010PropOp28
 70
     1
102
RTVSPost2010Prop29
280
     1
102
RTVSPost2010PropOp29
 70
     1
102
RTVSPost2010Prop30
280
     0
102
RTVSPost2010PropOp30
 70
     1
102
RTVSPost2010Prop31
280
     0
102
RTVSPost2010PropOp31
 70
     1
102
RTVSPost2010Prop32
280
     0
102
RTVSPost2010PropOp32
 70
     1
102
RTVSPost2010Prop33
280
     0
102
RTVSPost2010PropOp33
 70
     1
102
RTVSPost2010Prop34
280
     0
102
RTVSPost2010PropOp34
 70
     1
102
RTVSPost2010Prop35
280
     0
102
RTVSPost2010PropOp35
 70
     1
102
RTVSPost2010Prop36
280
     0
102
RTVSPost2010PropOp36
 70
     1
102
RTVSPost2010Prop37
 90
       50
102
RTVSPost2010PropOp37
 70
     1
102
RTVSPost2010Prop38
140
0.0
102
RTVSPost2010PropOp38
 70
     1
102
RTVSPost2010Prop39
140
1.0
102
RTVSPost2010PropOp39
 70
     1
102
RTVSPost2010Prop40
 90
        0
102
RTVSPost2010PropOp40
 70
     1
102
RTVSPost2010Prop41ColorIndex
 90
       18
102
RTVSPost2010Prop41ColorRGB
 90
        0
102
RTVSPost2010PropOp41
 70
     1
102
RTVSPost2010Prop42
 90
       50
102
RTVSPost2010PropOp42
 70
     1
102
RTVSPost2010Prop43
 90
        3
102
RTVSPost2010PropOp43
 70
     1
102
RTVSPost2010Prop44ColorIndex
 90
        5
102
RTVSPost2010Prop44ColorRGB
 90
      255
102
RTVSPost2010PropOp44
 70
     1
102
RTVSPost2010Prop45
280
     0
102
RTVSPost2010PropOp45
 70
     1
102
RTVSPost2010Prop46
 90
       50
102
RTVSPost2010PropOp46
 70
     1
102
RTVSPost2010Prop47
 90
       50
102
RTVSPost2010PropOp47
 70
     1
102
RTVSPost2010Prop48
 90
       50
102
RTVSPost2010PropOp48
 70
     1
102
RTVSPost2010Prop49
280
     0
102
RTVSPost2010PropOp49
 70
     1
102
RTVSPost2010Prop50
 90
       50
102
RTVSPost2010PropOp50
 70
     1
102
RTVSPost2010Prop51ColorIndex
 90
      256
102
RTVSPost2010Prop51ColorRGB
 90
-16777216
102
RTVSPost2010PropOp51
 70
     0
102
RTVSPost2010Prop52
140
1.0
102
RTVSPost2010PropOp52
 70
     0
102
RTVSPost2010Prop53
 90
        2
102
RTVSPost2010PropOp53
 70
     1
102
RTVSPost2010Prop54
  1
strokes_ogs.tif
102
RTVSPost2010PropOp54
 70
     1
102
RTVSPost2010Prop55
280
     0
102
RTVSPost2010PropOp55
 70
     1
102
RTVSPost2010Prop56
140
1.0
102
RTVSPost2010PropOp56
 70
     1
102
RTVSPost2010Prop57
140
1.0
102
RTVSPost2010PropOp57
 70
     1
  0
XRECORD
  5
63A2
102
{ACAD_REACTORS
330
63A1
102
}
330
63A1
100
AcDbXrecord
280
     1
102
RTVSPropertyOp0
 70
     1
102
RTVSPropertyOp1
 70
     1
102
RTVSPropertyOp2
 70
     1
102
RTVSPropertyOp3
 70
     1
102
RTVSPropertyOp4
 70
     1
102
RTVSPropertyOp5
 70
     1
102
RTVSPropertyOp6
 70
     1
102
RTVSPropertyOp7
 70
     1
102
RTVSPropertyOp8
 70
     1
102
RTVSPropertyOp9
 70
     1
102
RTVSPropertyOp10
 70
     1
102
RTVSPropertyOp11
 70
     1
102
RTVSPropertyOp12
 70
     1
102
RTVSPropertyOp13
 70
     1
102
RTVSPropertyOp14
 70
     1
102
RTVSPropertyOp15
 70
     1
102
RTVSPropertyOp16
 70
     1
102
RTVSPropertyOp17
 70
     1
102
RTVSPropertyOp18
 70
     1
102
RTVSPropertyOp19
 70
     1
102
RTVSPropertyOp20
 70
     1
102
RTVSPropertyOp21
 70
     1
102
RTVSPropertyOp22
 70
     1
102
RTVSPropertyOp23
 70
     1
102
RTVSPropertyOp24
 70
     1
102
RTVSPropertyOp25
 70
     1
102
RTVSPropertyOp26
 70
     1
102
RTVSPropertyOp27
 70
     1
102
RTVSPropertyOp28
 70
     1
102
RTVSPropertyOp29
 70
     1
102
RTVSPropertyOp30
 70
     1
102
RTVSPropertyOp31
 70
     1
102
RTVSPropertyOp32
 70
     1
102
RTVSPropertyOp33
 70
     1
102
RTVSPropertyOp34
 70
     1
102
RTVSPropertyOp35
 70
     1
102
RTVSPropertyOp36
 70
     1
102
RTVSPropertyOp37
 70
     1
102
RTVSPropertyOp38
 70
     1
102
RTVSPropertyOp39
 70
     1
102
RTVSPropertyOp40
 70
     1
102
RTVSPropertyOp41
 70
     1
102
RTVSPropertyOp42
 70
     1
102
RTVSPropertyOp43
 70
     1
102
RTVSPropertyOp44
 70
     1
102
RTVSPropertyOp45
 70
     1
102
RTVSPropertyOp46
 70
     1
102
RTVSPropertyOp47
 70
     1
102
RTVSPropertyOp48
 70
     1
102
RTVSPropertyOp49
 70
     1
102
RTVSPropertyOp50
 70
     1
102
RTVSPropertyOp51
 70
     0
102
RTVSPropertyOp52
 70
     0
102
RTVSPropertyOp53
 70
     1
102
RTVSPropertyOp54
 70
     1
102
RTVSPropertyOp55
 70
     1
102
RTVSPropertyOp56
 70
     1
102
RTVSPropertyOp57
 70
     1
102
RTVSPost2010Prop28
280
     0
102
RTVSPost2010PropOp28
 70
     1
102
RTVSPost2010Prop29
280
     1
102
RTVSPost2010PropOp29
 70
     1
102
RTVSPost2010Prop30
280
     1
102
RTVSPost2010PropOp30
 70
     1
102
RTVSPost2010Prop31
280
     0
102
RTVSPost2010PropOp31
 70
     1
102
RTVSPost2010Prop32
280
     0
102
RTVSPost2010PropOp32
 70
     1
102
RTVSPost2010Prop33
280
     0
102
RTVSPost2010PropOp33
 70
     1
102
RTVSPost2010Prop34
280
     0
102
RTVSPost2010PropOp34
 70
     1
102
RTVSPost2010Prop35
280
     0
102
RTVSPost2010PropOp35
 70
     1
102
RTVSPost2010Prop36
280
     0
102
RTVSPost2010PropOp36
 70
     1
102
RTVSPost2010Prop37
 90
       50
102
RTVSPost2010PropOp37
 70
     1
102
RTVSPost2010Prop38
140
0.0
102
RTVSPost2010PropOp38
 70
     1
102
RTVSPost2010Prop39
140
1.0
102
RTVSPost2010PropOp39
 70
     1
102
RTVSPost2010Prop40
 90
        0
102
RTVSPost2010PropOp40
 70
     1
102
RTVSPost2010Prop41ColorIndex
 90
       18
102
RTVSPost2010Prop41ColorRGB
 90
        0
102
RTVSPost2010PropOp41
 70
     1
102
RTVSPost2010Prop42
 90
       50
102
RTVSPost2010PropOp42
 70
     1
102
RTVSPost2010Prop43
 90
        3
102
RTVSPost2010PropOp43
 70
     1
102
RTVSPost2010Prop44ColorIndex
 90
        5
102
RTVSPost2010Prop44ColorRGB
 90
      255
102
RTVSPost2010PropOp44
 70
     1
102
RTVSPost2010Prop45
280
     0
102
RTVSPost2010PropOp45
 70
     1
102
RTVSPost2010Prop46
 90
       50
102
RTVSPost2010PropOp46
 70
     1
102
RTVSPost2010Prop47
 90
       50
102
RTVSPost2010PropOp47
 70
     1
102
RTVSPost2010Prop48
 90
       50
102
RTVSPost2010PropOp48
 70
     1
102
RTVSPost2010Prop49
280
     0
102
RTVSPost2010PropOp49
 70
     1
102
RTVSPost2010Prop50
 90
       50
102
RTVSPost2010PropOp50
 70
     1
102
RTVSPost2010Prop51ColorIndex
 90
      256
102
RTVSPost2010Prop51ColorRGB
 90
-16777216
102
RTVSPost2010PropOp51
 70
     0
102
RTVSPost2010Prop52
140
1.0
102
RTVSPost2010PropOp52
 70
     0
102
RTVSPost2010Prop53
 90
        2
102
RTVSPost2010PropOp53
 70
     1
102
RTVSPost2010Prop54
  1
strokes_ogs.tif
102
RTVSPost2010PropOp54
 70
     1
102
RTVSPost2010Prop55
280
     0
102
RTVSPost2010PropOp55
 70
     1
102
RTVSPost2010Prop56
140
1.0
102
RTVSPost2010PropOp56
 70
     1
102
RTVSPost2010Prop57
140
1.0
102
RTVSPost2010PropOp57
 70
     1
  0
XRECORD
  5
6374
102
{ACAD_REACTORS
330
6373
102
}
330
6373
100
AcDbXrecord
280
     1
102
RTVSPropertyOp0
 70
     1
102
RTVSPropertyOp1
 70
     1
102
RTVSPropertyOp2
 70
     1
102
RTVSPropertyOp3
 70
     1
102
RTVSPropertyOp4
 70
     1
102
RTVSPropertyOp5
 70
     1
102
RTVSPropertyOp6
 70
     1
102
RTVSPropertyOp7
 70
     1
102
RTVSPropertyOp8
 70
     1
102
RTVSPropertyOp9
 70
     1
102
RTVSPropertyOp10
 70
     1
102
RTVSPropertyOp11
 70
     1
102
RTVSPropertyOp12
 70
     1
102
RTVSPropertyOp13
 70
     1
102
RTVSPropertyOp14
 70
     1
102
RTVSPropertyOp15
 70
     1
102
RTVSPropertyOp16
 70
     1
102
RTVSPropertyOp17
 70
     1
102
RTVSPropertyOp18
 70
     1
102
RTVSPropertyOp19
 70
     1
102
RTVSPropertyOp20
 70
     1
102
RTVSPropertyOp21
 70
     1
102
RTVSPropertyOp22
 70
     1
102
RTVSPropertyOp23
 70
     1
102
RTVSPropertyOp24
 70
     1
102
RTVSPropertyOp25
 70
     1
102
RTVSPropertyOp26
 70
     1
102
RTVSPropertyOp27
 70
     1
102
RTVSPropertyOp28
 70
     1
102
RTVSPropertyOp29
 70
     1
102
RTVSPropertyOp30
 70
     1
102
RTVSPropertyOp31
 70
     1
102
RTVSPropertyOp32
 70
     1
102
RTVSPropertyOp33
 70
     1
102
RTVSPropertyOp34
 70
     1
102
RTVSPropertyOp35
 70
     1
102
RTVSPropertyOp36
 70
     1
102
RTVSPropertyOp37
 70
     1
102
RTVSPropertyOp38
 70
     1
102
RTVSPropertyOp39
 70
     1
102
RTVSPropertyOp40
 70
     1
102
RTVSPropertyOp41
 70
     1
102
RTVSPropertyOp42
 70
     1
102
RTVSPropertyOp43
 70
     1
102
RTVSPropertyOp44
 70
     1
102
RTVSPropertyOp45
 70
     1
102
RTVSPropertyOp46
 70
     1
102
RTVSPropertyOp47
 70
     1
102
RTVSPropertyOp48
 70
     1
102
RTVSPropertyOp49
 70
     1
102
RTVSPropertyOp50
 70
     1
102
RTVSPropertyOp51
 70
     0
102
RTVSPropertyOp52
 70
     0
102
RTVSPropertyOp53
 70
     1
102
RTVSPropertyOp54
 70
     1
102
RTVSPropertyOp55
 70
     1
102
RTVSPropertyOp56
 70
     1
102
RTVSPropertyOp57
 70
     1
102
RTVSPost2010Prop28
280
     0
102
RTVSPost2010PropOp28
 70
     1
102
RTVSPost2010Prop29
280
     1
102
RTVSPost2010PropOp29
 70
     1
102
RTVSPost2010Prop30
280
     1
102
RTVSPost2010PropOp30
 70
     1
102
RTVSPost2010Prop31
280
     0
102
RTVSPost2010PropOp31
 70
     1
102
RTVSPost2010Prop32
280
     0
102
RTVSPost2010PropOp32
 70
     1
102
RTVSPost2010Prop33
280
     0
102
RTVSPost2010PropOp33
 70
     1
102
RTVSPost2010Prop34
280
     0
102
RTVSPost2010PropOp34
 70
     1
102
RTVSPost2010Prop35
280
     0
102
RTVSPost2010PropOp35
 70
     1
102
RTVSPost2010Prop36
280
     0
102
RTVSPost2010PropOp36
 70
     1
102
RTVSPost2010Prop37
 90
       50
102
RTVSPost2010PropOp37
 70
     1
102
RTVSPost2010Prop38
140
0.0
102
RTVSPost2010PropOp38
 70
     1
102
RTVSPost2010Prop39
140
1.0
102
RTVSPost2010PropOp39
 70
     1
102
RTVSPost2010Prop40
 90
        0
102
RTVSPost2010PropOp40
 70
     1
102
RTVSPost2010Prop41ColorIndex
 90
       18
102
RTVSPost2010Prop41ColorRGB
 90
        0
102
RTVSPost2010PropOp41
 70
     1
102
RTVSPost2010Prop42
 90
       50
102
RTVSPost2010PropOp42
 70
     1
102
RTVSPost2010Prop43
 90
        3
102
RTVSPost2010PropOp43
 70
     1
102
RTVSPost2010Prop44ColorIndex
 90
        5
102
RTVSPost2010Prop44ColorRGB
 90
      255
102
RTVSPost2010PropOp44
 70
     1
102
RTVSPost2010Prop45
280
     0
102
RTVSPost2010PropOp45
 70
     1
102
RTVSPost2010Prop46
 90
       50
102
RTVSPost2010PropOp46
 70
     1
102
RTVSPost2010Prop47
 90
       50
102
RTVSPost2010PropOp47
 70
     1
102
RTVSPost2010Prop48
 90
       50
102
RTVSPost2010PropOp48
 70
     1
102
RTVSPost2010Prop49
280
     0
102
RTVSPost2010PropOp49
 70
     1
102
RTVSPost2010Prop50
 90
       50
102
RTVSPost2010PropOp50
 70
     1
102
RTVSPost2010Prop51ColorIndex
 90
      256
102
RTVSPost2010Prop51ColorRGB
 90
-16777216
102
RTVSPost2010PropOp51
 70
     0
102
RTVSPost2010Prop52
140
1.0
102
RTVSPost2010PropOp52
 70
     0
102
RTVSPost2010Prop53
 90
        2
102
RTVSPost2010PropOp53
 70
     1
102
RTVSPost2010Prop54
  1
strokes_ogs.tif
102
RTVSPost2010PropOp54
 70
     1
102
RTVSPost2010Prop55
280
     0
102
RTVSPost2010PropOp55
 70
     1
102
RTVSPost2010Prop56
140
1.0
102
RTVSPost2010PropOp56
 70
     1
102
RTVSPost2010Prop57
140
1.0
102
RTVSPost2010PropOp57
 70
     1
  0
XRECORD
  5
6376
102
{ACAD_REACTORS
330
6375
102
}
330
6375
100
AcDbXrecord
280
     1
102
RTVSPropertyOp0
 70
     1
102
RTVSPropertyOp1
 70
     1
102
RTVSPropertyOp2
 70
     1
102
RTVSPropertyOp3
 70
     1
102
RTVSPropertyOp4
 70
     1
102
RTVSPropertyOp5
 70
     1
102
RTVSPropertyOp6
 70
     1
102
RTVSPropertyOp7
 70
     1
102
RTVSPropertyOp8
 70
     1
102
RTVSPropertyOp9
 70
     1
102
RTVSPropertyOp10
 70
     1
102
RTVSPropertyOp11
 70
     1
102
RTVSPropertyOp12
 70
     1
102
RTVSPropertyOp13
 70
     1
102
RTVSPropertyOp14
 70
     1
102
RTVSPropertyOp15
 70
     1
102
RTVSPropertyOp16
 70
     1
102
RTVSPropertyOp17
 70
     1
102
RTVSPropertyOp18
 70
     1
102
RTVSPropertyOp19
 70
     1
102
RTVSPropertyOp20
 70
     1
102
RTVSPropertyOp21
 70
     1
102
RTVSPropertyOp22
 70
     1
102
RTVSPropertyOp23
 70
     1
102
RTVSPropertyOp24
 70
     1
102
RTVSPropertyOp25
 70
     1
102
RTVSPropertyOp26
 70
     1
102
RTVSPropertyOp27
 70
     1
102
RTVSPropertyOp28
 70
     1
102
RTVSPropertyOp29
 70
     1
102
RTVSPropertyOp30
 70
     1
102
RTVSPropertyOp31
 70
     1
102
RTVSPropertyOp32
 70
     1
102
RTVSPropertyOp33
 70
     1
102
RTVSPropertyOp34
 70
     1
102
RTVSPropertyOp35
 70
     1
102
RTVSPropertyOp36
 70
     1
102
RTVSPropertyOp37
 70
     1
102
RTVSPropertyOp38
 70
     1
102
RTVSPropertyOp39
 70
     1
102
RTVSPropertyOp40
 70
     1
102
RTVSPropertyOp41
 70
     1
102
RTVSPropertyOp42
 70
     1
102
RTVSPropertyOp43
 70
     1
102
RTVSPropertyOp44
 70
     1
102
RTVSPropertyOp45
 70
     1
102
RTVSPropertyOp46
 70
     1
102
RTVSPropertyOp47
 70
     1
102
RTVSPropertyOp48
 70
     1
102
RTVSPropertyOp49
 70
     1
102
RTVSPropertyOp50
 70
     1
102
RTVSPropertyOp51
 70
     0
102
RTVSPropertyOp52
 70
     0
102
RTVSPropertyOp53
 70
     1
102
RTVSPropertyOp54
 70
     1
102
RTVSPropertyOp55
 70
     1
102
RTVSPropertyOp56
 70
     1
102
RTVSPropertyOp57
 70
     1
102
RTVSPost2010Prop28
280
     0
102
RTVSPost2010PropOp28
 70
     1
102
RTVSPost2010Prop29
280
     1
102
RTVSPost2010PropOp29
 70
     1
102
RTVSPost2010Prop30
280
     1
102
RTVSPost2010PropOp30
 70
     1
102
RTVSPost2010Prop31
280
     0
102
RTVSPost2010PropOp31
 70
     1
102
RTVSPost2010Prop32
280
     0
102
RTVSPost2010PropOp32
 70
     1
102
RTVSPost2010Prop33
280
     0
102
RTVSPost2010PropOp33
 70
     1
102
RTVSPost2010Prop34
280
     0
102
RTVSPost2010PropOp34
 70
     1
102
RTVSPost2010Prop35
280
     0
102
RTVSPost2010PropOp35
 70
     1
102
RTVSPost2010Prop36
280
     0
102
RTVSPost2010PropOp36
 70
     1
102
RTVSPost2010Prop37
 90
       50
102
RTVSPost2010PropOp37
 70
     1
102
RTVSPost2010Prop38
140
0.0
102
RTVSPost2010PropOp38
 70
     1
102
RTVSPost2010Prop39
140
1.0
102
RTVSPost2010PropOp39
 70
     1
102
RTVSPost2010Prop40
 90
        0
102
RTVSPost2010PropOp40
 70
     1
102
RTVSPost2010Prop41ColorIndex
 90
       18
102
RTVSPost2010Prop41ColorRGB
 90
        0
102
RTVSPost2010PropOp41
 70
     1
102
RTVSPost2010Prop42
 90
       50
102
RTVSPost2010PropOp42
 70
     1
102
RTVSPost2010Prop43
 90
        3
102
RTVSPost2010PropOp43
 70
     1
102
RTVSPost2010Prop44ColorIndex
 90
        5
102
RTVSPost2010Prop44ColorRGB
 90
      255
102
RTVSPost2010PropOp44
 70
     1
102
RTVSPost2010Prop45
280
     0
102
RTVSPost2010PropOp45
 70
     1
102
RTVSPost2010Prop46
 90
       50
102
RTVSPost2010PropOp46
 70
     1
102
RTVSPost2010Prop47
 90
       50
102
RTVSPost2010PropOp47
 70
     1
102
RTVSPost2010Prop48
 90
       50
102
RTVSPost2010PropOp48
 70
     1
102
RTVSPost2010Prop49
280
     0
102
RTVSPost2010PropOp49
 70
     1
102
RTVSPost2010Prop50
 90
       50
102
RTVSPost2010PropOp50
 70
     1
102
RTVSPost2010Prop51ColorIndex
 90
      256
102
RTVSPost2010Prop51ColorRGB
 90
-16777216
102
RTVSPost2010PropOp51
 70
     0
102
RTVSPost2010Prop52
140
1.0
102
RTVSPost2010PropOp52
 70
     0
102
RTVSPost2010Prop53
 90
        2
102
RTVSPost2010PropOp53
 70
     1
102
RTVSPost2010Prop54
  1
strokes_ogs.tif
102
RTVSPost2010PropOp54
 70
     1
102
RTVSPost2010Prop55
280
     0
102
RTVSPost2010PropOp55
 70
     1
102
RTVSPost2010Prop56
140
1.0
102
RTVSPost2010PropOp56
 70
     1
102
RTVSPost2010Prop57
140
1.0
102
RTVSPost2010PropOp57
 70
     1
  0
XRECORD
  5
6378
102
{ACAD_REACTORS
330
6377
102
}
330
6377
100
AcDbXrecord
280
     1
102
RTVSPropertyOp0
 70
     1
102
RTVSPropertyOp1
 70
     1
102
RTVSPropertyOp2
 70
     1
102
RTVSPropertyOp3
 70
     1
102
RTVSPropertyOp4
 70
     1
102
RTVSPropertyOp5
 70
     1
102
RTVSPropertyOp6
 70
     1
102
RTVSPropertyOp7
 70
     1
102
RTVSPropertyOp8
 70
     1
102
RTVSPropertyOp9
 70
     1
102
RTVSPropertyOp10
 70
     1
102
RTVSPropertyOp11
 70
     1
102
RTVSPropertyOp12
 70
     1
102
RTVSPropertyOp13
 70
     1
102
RTVSPropertyOp14
 70
     1
102
RTVSPropertyOp15
 70
     1
102
RTVSPropertyOp16
 70
     1
102
RTVSPropertyOp17
 70
     1
102
RTVSPropertyOp18
 70
     1
102
RTVSPropertyOp19
 70
     1
102
RTVSPropertyOp20
 70
     1
102
RTVSPropertyOp21
 70
     1
102
RTVSPropertyOp22
 70
     1
102
RTVSPropertyOp23
 70
     1
102
RTVSPropertyOp24
 70
     1
102
RTVSPropertyOp25
 70
     1
102
RTVSPropertyOp26
 70
     1
102
RTVSPropertyOp27
 70
     1
102
RTVSPropertyOp28
 70
     1
102
RTVSPropertyOp29
 70
     1
102
RTVSPropertyOp30
 70
     1
102
RTVSPropertyOp31
 70
     1
102
RTVSPropertyOp32
 70
     1
102
RTVSPropertyOp33
 70
     1
102
RTVSPropertyOp34
 70
     1
102
RTVSPropertyOp35
 70
     1
102
RTVSPropertyOp36
 70
     1
102
RTVSPropertyOp37
 70
     1
102
RTVSPropertyOp38
 70
     1
102
RTVSPropertyOp39
 70
     1
102
RTVSPropertyOp40
 70
     1
102
RTVSPropertyOp41
 70
     1
102
RTVSPropertyOp42
 70
     1
102
RTVSPropertyOp43
 70
     1
102
RTVSPropertyOp44
 70
     1
102
RTVSPropertyOp45
 70
     1
102
RTVSPropertyOp46
 70
     1
102
RTVSPropertyOp47
 70
     1
102
RTVSPropertyOp48
 70
     1
102
RTVSPropertyOp49
 70
     1
102
RTVSPropertyOp50
 70
     1
102
RTVSPropertyOp51
 70
     0
102
RTVSPropertyOp52
 70
     0
102
RTVSPropertyOp53
 70
     1
102
RTVSPropertyOp54
 70
     1
102
RTVSPropertyOp55
 70
     1
102
RTVSPropertyOp56
 70
     1
102
RTVSPropertyOp57
 70
     1
102
RTVSPost2010Prop28
280
     0
102
RTVSPost2010PropOp28
 70
     1
102
RTVSPost2010Prop29
280
     1
102
RTVSPost2010PropOp29
 70
     1
102
RTVSPost2010Prop30
280
     1
102
RTVSPost2010PropOp30
 70
     1
102
RTVSPost2010Prop31
280
     0
102
RTVSPost2010PropOp31
 70
     1
102
RTVSPost2010Prop32
280
     0
102
RTVSPost2010PropOp32
 70
     1
102
RTVSPost2010Prop33
280
     0
102
RTVSPost2010PropOp33
 70
     1
102
RTVSPost2010Prop34
280
     0
102
RTVSPost2010PropOp34
 70
     1
102
RTVSPost2010Prop35
280
     0
102
RTVSPost2010PropOp35
 70
     1
102
RTVSPost2010Prop36
280
     0
102
RTVSPost2010PropOp36
 70
     1
102
RTVSPost2010Prop37
 90
       50
102
RTVSPost2010PropOp37
 70
     1
102
RTVSPost2010Prop38
140
0.0
102
RTVSPost2010PropOp38
 70
     1
102
RTVSPost2010Prop39
140
1.0
102
RTVSPost2010PropOp39
 70
     1
102
RTVSPost2010Prop40
 90
        0
102
RTVSPost2010PropOp40
 70
     1
102
RTVSPost2010Prop41ColorIndex
 90
       18
102
RTVSPost2010Prop41ColorRGB
 90
        0
102
RTVSPost2010PropOp41
 70
     1
102
RTVSPost2010Prop42
 90
       50
102
RTVSPost2010PropOp42
 70
     1
102
RTVSPost2010Prop43
 90
        3
102
RTVSPost2010PropOp43
 70
     1
102
RTVSPost2010Prop44ColorIndex
 90
        5
102
RTVSPost2010Prop44ColorRGB
 90
      255
102
RTVSPost2010PropOp44
 70
     1
102
RTVSPost2010Prop45
280
     0
102
RTVSPost2010PropOp45
 70
     1
102
RTVSPost2010Prop46
 90
       50
102
RTVSPost2010PropOp46
 70
     1
102
RTVSPost2010Prop47
 90
       50
102
RTVSPost2010PropOp47
 70
     1
102
RTVSPost2010Prop48
 90
       50
102
RTVSPost2010PropOp48
 70
     1
102
RTVSPost2010Prop49
280
     0
102
RTVSPost2010PropOp49
 70
     1
102
RTVSPost2010Prop50
 90
       50
102
RTVSPost2010PropOp50
 70
     1
102
RTVSPost2010Prop51ColorIndex
 90
      256
102
RTVSPost2010Prop51ColorRGB
 90
-16777216
102
RTVSPost2010PropOp51
 70
     0
102
RTVSPost2010Prop52
140
1.0
102
RTVSPost2010PropOp52
 70
     0
102
RTVSPost2010Prop53
 90
        2
102
RTVSPost2010PropOp53
 70
     1
102
RTVSPost2010Prop54
  1
strokes_ogs.tif
102
RTVSPost2010PropOp54
 70
     1
102
RTVSPost2010Prop55
280
     0
102
RTVSPost2010PropOp55
 70
     1
102
RTVSPost2010Prop56
140
1.0
102
RTVSPost2010PropOp56
 70
     1
102
RTVSPost2010Prop57
140
1.0
102
RTVSPost2010PropOp57
 70
     1
  0
XRECORD
  5
637A
102
{ACAD_REACTORS
330
6379
102
}
330
6379
100
AcDbXrecord
280
     1
102
RTVSPropertyOp0
 70
     1
102
RTVSPropertyOp1
 70
     1
102
RTVSPropertyOp2
 70
     1
102
RTVSPropertyOp3
 70
     1
102
RTVSPropertyOp4
 70
     1
102
RTVSPropertyOp5
 70
     1
102
RTVSPropertyOp6
 70
     1
102
RTVSPropertyOp7
 70
     1
102
RTVSPropertyOp8
 70
     1
102
RTVSPropertyOp9
 70
     1
102
RTVSPropertyOp10
 70
     1
102
RTVSPropertyOp11
 70
     1
102
RTVSPropertyOp12
 70
     1
102
RTVSPropertyOp13
 70
     1
102
RTVSPropertyOp14
 70
     1
102
RTVSPropertyOp15
 70
     1
102
RTVSPropertyOp16
 70
     1
102
RTVSPropertyOp17
 70
     1
102
RTVSPropertyOp18
 70
     1
102
RTVSPropertyOp19
 70
     1
102
RTVSPropertyOp20
 70
     1
102
RTVSPropertyOp21
 70
     1
102
RTVSPropertyOp22
 70
     1
102
RTVSPropertyOp23
 70
     1
102
RTVSPropertyOp24
 70
     1
102
RTVSPropertyOp25
 70
     1
102
RTVSPropertyOp26
 70
     1
102
RTVSPropertyOp27
 70
     1
102
RTVSPropertyOp28
 70
     1
102
RTVSPropertyOp29
 70
     1
102
RTVSPropertyOp30
 70
     1
102
RTVSPropertyOp31
 70
     1
102
RTVSPropertyOp32
 70
     1
102
RTVSPropertyOp33
 70
     1
102
RTVSPropertyOp34
 70
     1
102
RTVSPropertyOp35
 70
     1
102
RTVSPropertyOp36
 70
     1
102
RTVSPropertyOp37
 70
     1
102
RTVSPropertyOp38
 70
     1
102
RTVSPropertyOp39
 70
     1
102
RTVSPropertyOp40
 70
     1
102
RTVSPropertyOp41
 70
     1
102
RTVSPropertyOp42
 70
     1
102
RTVSPropertyOp43
 70
     1
102
RTVSPropertyOp44
 70
     1
102
RTVSPropertyOp45
 70
     1
102
RTVSPropertyOp46
 70
     1
102
RTVSPropertyOp47
 70
     1
102
RTVSPropertyOp48
 70
     1
102
RTVSPropertyOp49
 70
     1
102
RTVSPropertyOp50
 70
     1
102
RTVSPropertyOp51
 70
     0
102
RTVSPropertyOp52
 70
     0
102
RTVSPropertyOp53
 70
     1
102
RTVSPropertyOp54
 70
     1
102
RTVSPropertyOp55
 70
     1
102
RTVSPropertyOp56
 70
     1
102
RTVSPropertyOp57
 70
     1
102
RTVSPost2010Prop28
280
     0
102
RTVSPost2010PropOp28
 70
     1
102
RTVSPost2010Prop29
280
     1
102
RTVSPost2010PropOp29
 70
     1
102
RTVSPost2010Prop30
280
     1
102
RTVSPost2010PropOp30
 70
     1
102
RTVSPost2010Prop31
280
     0
102
RTVSPost2010PropOp31
 70
     1
102
RTVSPost2010Prop32
280
     0
102
RTVSPost2010PropOp32
 70
     1
102
RTVSPost2010Prop33
280
     0
102
RTVSPost2010PropOp33
 70
     1
102
RTVSPost2010Prop34
280
     0
102
RTVSPost2010PropOp34
 70
     1
102
RTVSPost2010Prop35
280
     0
102
RTVSPost2010PropOp35
 70
     1
102
RTVSPost2010Prop36
280
     0
102
RTVSPost2010PropOp36
 70
     1
102
RTVSPost2010Prop37
 90
       50
102
RTVSPost2010PropOp37
 70
     1
102
RTVSPost2010Prop38
140
0.0
102
RTVSPost2010PropOp38
 70
     1
102
RTVSPost2010Prop39
140
1.0
102
RTVSPost2010PropOp39
 70
     1
102
RTVSPost2010Prop40
 90
        0
102
RTVSPost2010PropOp40
 70
     1
102
RTVSPost2010Prop41ColorIndex
 90
       18
102
RTVSPost2010Prop41ColorRGB
 90
        0
102
RTVSPost2010PropOp41
 70
     1
102
RTVSPost2010Prop42
 90
       50
102
RTVSPost2010PropOp42
 70
     1
102
RTVSPost2010Prop43
 90
        3
102
RTVSPost2010PropOp43
 70
     1
102
RTVSPost2010Prop44ColorIndex
 90
        5
102
RTVSPost2010Prop44ColorRGB
 90
      255
102
RTVSPost2010PropOp44
 70
     1
102
RTVSPost2010Prop45
280
     0
102
RTVSPost2010PropOp45
 70
     1
102
RTVSPost2010Prop46
 90
       50
102
RTVSPost2010PropOp46
 70
     1
102
RTVSPost2010Prop47
 90
       50
102
RTVSPost2010PropOp47
 70
     1
102
RTVSPost2010Prop48
 90
       50
102
RTVSPost2010PropOp48
 70
     1
102
RTVSPost2010Prop49
280
     0
102
RTVSPost2010PropOp49
 70
     1
102
RTVSPost2010Prop50
 90
       50
102
RTVSPost2010PropOp50
 70
     1
102
RTVSPost2010Prop51ColorIndex
 90
      256
102
RTVSPost2010Prop51ColorRGB
 90
-16777216
102
RTVSPost2010PropOp51
 70
     0
102
RTVSPost2010Prop52
140
1.0
102
RTVSPost2010PropOp52
 70
     0
102
RTVSPost2010Prop53
 90
        2
102
RTVSPost2010PropOp53
 70
     1
102
RTVSPost2010Prop54
  1
strokes_ogs.tif
102
RTVSPost2010PropOp54
 70
     1
102
RTVSPost2010Prop55
280
     0
102
RTVSPost2010PropOp55
 70
     1
102
RTVSPost2010Prop56
140
1.0
102
RTVSPost2010PropOp56
 70
     1
102
RTVSPost2010Prop57
140
1.0
102
RTVSPost2010PropOp57
 70
     1
  0
XRECORD
  5
637C
102
{ACAD_REACTORS
330
637B
102
}
330
637B
100
AcDbXrecord
280
     1
102
RTVSPropertyOp0
 70
     1
102
RTVSPropertyOp1
 70
     1
102
RTVSPropertyOp2
 70
     1
102
RTVSPropertyOp3
 70
     1
102
RTVSPropertyOp4
 70
     1
102
RTVSPropertyOp5
 70
     1
102
RTVSPropertyOp6
 70
     1
102
RTVSPropertyOp7
 70
     1
102
RTVSPropertyOp8
 70
     1
102
RTVSPropertyOp9
 70
     1
102
RTVSPropertyOp10
 70
     1
102
RTVSPropertyOp11
 70
     1
102
RTVSPropertyOp12
 70
     1
102
RTVSPropertyOp13
 70
     1
102
RTVSPropertyOp14
 70
     1
102
RTVSPropertyOp15
 70
     1
102
RTVSPropertyOp16
 70
     1
102
RTVSPropertyOp17
 70
     1
102
RTVSPropertyOp18
 70
     1
102
RTVSPropertyOp19
 70
     1
102
RTVSPropertyOp20
 70
     1
102
RTVSPropertyOp21
 70
     1
102
RTVSPropertyOp22
 70
     1
102
RTVSPropertyOp23
 70
     1
102
RTVSPropertyOp24
 70
     1
102
RTVSPropertyOp25
 70
     1
102
RTVSPropertyOp26
 70
     1
102
RTVSPropertyOp27
 70
     1
102
RTVSPropertyOp28
 70
     1
102
RTVSPropertyOp29
 70
     1
102
RTVSPropertyOp30
 70
     1
102
RTVSPropertyOp31
 70
     1
102
RTVSPropertyOp32
 70
     1
102
RTVSPropertyOp33
 70
     1
102
RTVSPropertyOp34
 70
     1
102
RTVSPropertyOp35
 70
     1
102
RTVSPropertyOp36
 70
     1
102
RTVSPropertyOp37
 70
     1
102
RTVSPropertyOp38
 70
     1
102
RTVSPropertyOp39
 70
     1
102
RTVSPropertyOp40
 70
     1
102
RTVSPropertyOp41
 70
     1
102
RTVSPropertyOp42
 70
     1
102
RTVSPropertyOp43
 70
     1
102
RTVSPropertyOp44
 70
     1
102
RTVSPropertyOp45
 70
     1
102
RTVSPropertyOp46
 70
     1
102
RTVSPropertyOp47
 70
     1
102
RTVSPropertyOp48
 70
     1
102
RTVSPropertyOp49
 70
     1
102
RTVSPropertyOp50
 70
     1
102
RTVSPropertyOp51
 70
     0
102
RTVSPropertyOp52
 70
     0
102
RTVSPropertyOp53
 70
     1
102
RTVSPropertyOp54
 70
     1
102
RTVSPropertyOp55
 70
     1
102
RTVSPropertyOp56
 70
     1
102
RTVSPropertyOp57
 70
     1
102
RTVSPost2010Prop28
280
     0
102
RTVSPost2010PropOp28
 70
     1
102
RTVSPost2010Prop29
280
     1
102
RTVSPost2010PropOp29
 70
     1
102
RTVSPost2010Prop30
280
     1
102
RTVSPost2010PropOp30
 70
     1
102
RTVSPost2010Prop31
280
     0
102
RTVSPost2010PropOp31
 70
     1
102
RTVSPost2010Prop32
280
     0
102
RTVSPost2010PropOp32
 70
     1
102
RTVSPost2010Prop33
280
     0
102
RTVSPost2010PropOp33
 70
     1
102
RTVSPost2010Prop34
280
     0
102
RTVSPost2010PropOp34
 70
     1
102
RTVSPost2010Prop35
280
     0
102
RTVSPost2010PropOp35
 70
     1
102
RTVSPost2010Prop36
280
     0
102
RTVSPost2010PropOp36
 70
     1
102
RTVSPost2010Prop37
 90
       50
102
RTVSPost2010PropOp37
 70
     1
102
RTVSPost2010Prop38
140
0.0
102
RTVSPost2010PropOp38
 70
     1
102
RTVSPost2010Prop39
140
1.0
102
RTVSPost2010PropOp39
 70
     1
102
RTVSPost2010Prop40
 90
        0
102
RTVSPost2010PropOp40
 70
     1
102
RTVSPost2010Prop41ColorIndex
 90
       18
102
RTVSPost2010Prop41ColorRGB
 90
        0
102
RTVSPost2010PropOp41
 70
     1
102
RTVSPost2010Prop42
 90
       50
102
RTVSPost2010PropOp42
 70
     1
102
RTVSPost2010Prop43
 90
        3
102
RTVSPost2010PropOp43
 70
     1
102
RTVSPost2010Prop44ColorIndex
 90
        5
102
RTVSPost2010Prop44ColorRGB
 90
      255
102
RTVSPost2010PropOp44
 70
     1
102
RTVSPost2010Prop45
280
     0
102
RTVSPost2010PropOp45
 70
     1
102
RTVSPost2010Prop46
 90
       50
102
RTVSPost2010PropOp46
 70
     1
102
RTVSPost2010Prop47
 90
       50
102
RTVSPost2010PropOp47
 70
     1
102
RTVSPost2010Prop48
 90
       50
102
RTVSPost2010PropOp48
 70
     1
102
RTVSPost2010Prop49
280
     0
102
RTVSPost2010PropOp49
 70
     1
102
RTVSPost2010Prop50
 90
       50
102
RTVSPost2010PropOp50
 70
     1
102
RTVSPost2010Prop51ColorIndex
 90
      256
102
RTVSPost2010Prop51ColorRGB
 90
-16777216
102
RTVSPost2010PropOp51
 70
     0
102
RTVSPost2010Prop52
140
1.0
102
RTVSPost2010PropOp52
 70
     0
102
RTVSPost2010Prop53
 90
        2
102
RTVSPost2010PropOp53
 70
     1
102
RTVSPost2010Prop54
  1
strokes_ogs.tif
102
RTVSPost2010PropOp54
 70
     1
102
RTVSPost2010Prop55
280
     0
102
RTVSPost2010PropOp55
 70
     1
102
RTVSPost2010Prop56
140
1.0
102
RTVSPost2010PropOp56
 70
     1
102
RTVSPost2010Prop57
140
1.0
102
RTVSPost2010PropOp57
 70
     1
  0
XRECORD
  5
637E
102
{ACAD_REACTORS
330
637D
102
}
330
637D
100
AcDbXrecord
280
     1
102
RTVSPropertyOp0
 70
     0
102
RTVSPropertyOp1
 70
     0
102
RTVSPropertyOp2
 70
     0
102
RTVSPropertyOp3
 70
     0
102
RTVSPropertyOp4
 70
     0
102
RTVSPropertyOp5
 70
     0
102
RTVSPropertyOp6
 70
     0
102
RTVSPropertyOp7
 70
     0
102
RTVSPropertyOp8
 70
     0
102
RTVSPropertyOp9
 70
     0
102
RTVSPropertyOp10
 70
     0
102
RTVSPropertyOp11
 70
     0
102
RTVSPropertyOp12
 70
     0
102
RTVSPropertyOp13
 70
     0
102
RTVSPropertyOp14
 70
     2
102
RTVSPropertyOp15
 70
     0
102
RTVSPropertyOp16
 70
     0
102
RTVSPropertyOp17
 70
     0
102
RTVSPropertyOp18
 70
     0
102
RTVSPropertyOp19
 70
     0
102
RTVSPropertyOp20
 70
     0
102
RTVSPropertyOp21
 70
     0
102
RTVSPropertyOp22
 70
     0
102
RTVSPropertyOp23
 70
     0
102
RTVSPropertyOp24
 70
     0
102
RTVSPropertyOp25
 70
     0
102
RTVSPropertyOp26
 70
     0
102
RTVSPropertyOp27
 70
     0
102
RTVSPropertyOp28
 70
     1
102
RTVSPropertyOp29
 70
     1
102
RTVSPropertyOp30
 70
     1
102
RTVSPropertyOp31
 70
     1
102
RTVSPropertyOp32
 70
     1
102
RTVSPropertyOp33
 70
     1
102
RTVSPropertyOp34
 70
     1
102
RTVSPropertyOp35
 70
     1
102
RTVSPropertyOp36
 70
     1
102
RTVSPropertyOp37
 70
     1
102
RTVSPropertyOp38
 70
     1
102
RTVSPropertyOp39
 70
     1
102
RTVSPropertyOp40
 70
     1
102
RTVSPropertyOp41
 70
     1
102
RTVSPropertyOp42
 70
     1
102
RTVSPropertyOp43
 70
     1
102
RTVSPropertyOp44
 70
     1
102
RTVSPropertyOp45
 70
     1
102
RTVSPropertyOp46
 70
     1
102
RTVSPropertyOp47
 70
     1
102
RTVSPropertyOp48
 70
     1
102
RTVSPropertyOp49
 70
     1
102
RTVSPropertyOp50
 70
     1
102
RTVSPropertyOp51
 70
     0
102
RTVSPropertyOp52
 70
     0
102
RTVSPropertyOp53
 70
     1
102
RTVSPropertyOp54
 70
     1
102
RTVSPropertyOp55
 70
     1
102
RTVSPropertyOp56
 70
     1
102
RTVSPropertyOp57
 70
     1
102
RTVSPost2010Prop28
280
     0
102
RTVSPost2010PropOp28
 70
     1
102
RTVSPost2010Prop29
280
     1
102
RTVSPost2010PropOp29
 70
     1
102
RTVSPost2010Prop30
280
     1
102
RTVSPost2010PropOp30
 70
     1
102
RTVSPost2010Prop31
280
     0
102
RTVSPost2010PropOp31
 70
     1
102
RTVSPost2010Prop32
280
     0
102
RTVSPost2010PropOp32
 70
     1
102
RTVSPost2010Prop33
280
     0
102
RTVSPost2010PropOp33
 70
     1
102
RTVSPost2010Prop34
280
     0
102
RTVSPost2010PropOp34
 70
     1
102
RTVSPost2010Prop35
280
     0
102
RTVSPost2010PropOp35
 70
     1
102
RTVSPost2010Prop36
280
     0
102
RTVSPost2010PropOp36
 70
     1
102
RTVSPost2010Prop37
 90
       50
102
RTVSPost2010PropOp37
 70
     1
102
RTVSPost2010Prop38
140
0.0
102
RTVSPost2010PropOp38
 70
     1
102
RTVSPost2010Prop39
140
1.0
102
RTVSPost2010PropOp39
 70
     1
102
RTVSPost2010Prop40
 90
        0
102
RTVSPost2010PropOp40
 70
     1
102
RTVSPost2010Prop41ColorIndex
 90
       18
102
RTVSPost2010Prop41ColorRGB
 90
        0
102
RTVSPost2010PropOp41
 70
     1
102
RTVSPost2010Prop42
 90
       50
102
RTVSPost2010PropOp42
 70
     1
102
RTVSPost2010Prop43
 90
        3
102
RTVSPost2010PropOp43
 70
     1
102
RTVSPost2010Prop44ColorIndex
 90
        5
102
RTVSPost2010Prop44ColorRGB
 90
      255
102
RTVSPost2010PropOp44
 70
     1
102
RTVSPost2010Prop45
280
     0
102
RTVSPost2010PropOp45
 70
     1
102
RTVSPost2010Prop46
 90
       50
102
RTVSPost2010PropOp46
 70
     1
102
RTVSPost2010Prop47
 90
       50
102
RTVSPost2010PropOp47
 70
     1
102
RTVSPost2010Prop48
 90
       50
102
RTVSPost2010PropOp48
 70
     1
102
RTVSPost2010Prop49
280
     0
102
RTVSPost2010PropOp49
 70
     1
102
RTVSPost2010Prop50
 90
       50
102
RTVSPost2010PropOp50
 70
     1
102
RTVSPost2010Prop51ColorIndex
 90
      256
102
RTVSPost2010Prop51ColorRGB
 90
-16777216
102
RTVSPost2010PropOp51
 70
     0
102
RTVSPost2010Prop52
140
1.0
102
RTVSPost2010PropOp52
 70
     0
102
RTVSPost2010Prop53
 90
        2
102
RTVSPost2010PropOp53
 70
     1
102
RTVSPost2010Prop54
  1
strokes_ogs.tif
102
RTVSPost2010PropOp54
 70
     1
102
RTVSPost2010Prop55
280
     0
102
RTVSPost2010PropOp55
 70
     1
102
RTVSPost2010Prop56
140
1.0
102
RTVSPost2010PropOp56
 70
     1
102
RTVSPost2010Prop57
140
1.0
102
RTVSPost2010PropOp57
 70
     1
  0
XRECORD
  5
6380
102
{ACAD_REACTORS
330
637F
102
}
330
637F
100
AcDbXrecord
280
     1
102
RTVSPropertyOp0
 70
     1
102
RTVSPropertyOp1
 70
     1
102
RTVSPropertyOp2
 70
     1
102
RTVSPropertyOp3
 70
     1
102
RTVSPropertyOp4
 70
     1
102
RTVSPropertyOp5
 70
     1
102
RTVSPropertyOp6
 70
     1
102
RTVSPropertyOp7
 70
     1
102
RTVSPropertyOp8
 70
     1
102
RTVSPropertyOp9
 70
     1
102
RTVSPropertyOp10
 70
     1
102
RTVSPropertyOp11
 70
     1
102
RTVSPropertyOp12
 70
     1
102
RTVSPropertyOp13
 70
     1
102
RTVSPropertyOp14
 70
     1
102
RTVSPropertyOp15
 70
     1
102
RTVSPropertyOp16
 70
     1
102
RTVSPropertyOp17
 70
     1
102
RTVSPropertyOp18
 70
     1
102
RTVSPropertyOp19
 70
     1
102
RTVSPropertyOp20
 70
     1
102
RTVSPropertyOp21
 70
     1
102
RTVSPropertyOp22
 70
     1
102
RTVSPropertyOp23
 70
     1
102
RTVSPropertyOp24
 70
     1
102
RTVSPropertyOp25
 70
     1
102
RTVSPropertyOp26
 70
     1
102
RTVSPropertyOp27
 70
     1
102
RTVSPropertyOp28
 70
     1
102
RTVSPropertyOp29
 70
     1
102
RTVSPropertyOp30
 70
     1
102
RTVSPropertyOp31
 70
     1
102
RTVSPropertyOp32
 70
     1
102
RTVSPropertyOp33
 70
     1
102
RTVSPropertyOp34
 70
     1
102
RTVSPropertyOp35
 70
     1
102
RTVSPropertyOp36
 70
     1
102
RTVSPropertyOp37
 70
     1
102
RTVSPropertyOp38
 70
     1
102
RTVSPropertyOp39
 70
     1
102
RTVSPropertyOp40
 70
     1
102
RTVSPropertyOp41
 70
     1
102
RTVSPropertyOp42
 70
     1
102
RTVSPropertyOp43
 70
     1
102
RTVSPropertyOp44
 70
     1
102
RTVSPropertyOp45
 70
     1
102
RTVSPropertyOp46
 70
     1
102
RTVSPropertyOp47
 70
     1
102
RTVSPropertyOp48
 70
     1
102
RTVSPropertyOp49
 70
     1
102
RTVSPropertyOp50
 70
     1
102
RTVSPropertyOp51
 70
     0
102
RTVSPropertyOp52
 70
     0
102
RTVSPropertyOp53
 70
     1
102
RTVSPropertyOp54
 70
     1
102
RTVSPropertyOp55
 70
     1
102
RTVSPropertyOp56
 70
     1
102
RTVSPropertyOp57
 70
     1
102
RTVSPost2010Prop28
280
     0
102
RTVSPost2010PropOp28
 70
     1
102
RTVSPost2010Prop29
280
     1
102
RTVSPost2010PropOp29
 70
     1
102
RTVSPost2010Prop30
280
     1
102
RTVSPost2010PropOp30
 70
     1
102
RTVSPost2010Prop31
280
     0
102
RTVSPost2010PropOp31
 70
     1
102
RTVSPost2010Prop32
280
     0
102
RTVSPost2010PropOp32
 70
     1
102
RTVSPost2010Prop33
280
     0
102
RTVSPost2010PropOp33
 70
     1
102
RTVSPost2010Prop34
280
     0
102
RTVSPost2010PropOp34
 70
     1
102
RTVSPost2010Prop35
280
     0
102
RTVSPost2010PropOp35
 70
     1
102
RTVSPost2010Prop36
280
     0
102
RTVSPost2010PropOp36
 70
     1
102
RTVSPost2010Prop37
 90
       50
102
RTVSPost2010PropOp37
 70
     1
102
RTVSPost2010Prop38
140
0.0
102
RTVSPost2010PropOp38
 70
     1
102
RTVSPost2010Prop39
140
1.0
102
RTVSPost2010PropOp39
 70
     1
102
RTVSPost2010Prop40
 90
        0
102
RTVSPost2010PropOp40
 70
     1
102
RTVSPost2010Prop41ColorIndex
 90
       18
102
RTVSPost2010Prop41ColorRGB
 90
        0
102
RTVSPost2010PropOp41
 70
     1
102
RTVSPost2010Prop42
 90
       50
102
RTVSPost2010PropOp42
 70
     1
102
RTVSPost2010Prop43
 90
        3
102
RTVSPost2010PropOp43
 70
     1
102
RTVSPost2010Prop44ColorIndex
 90
        5
102
RTVSPost2010Prop44ColorRGB
 90
      255
102
RTVSPost2010PropOp44
 70
     1
102
RTVSPost2010Prop45
280
     0
102
RTVSPost2010PropOp45
 70
     1
102
RTVSPost2010Prop46
 90
       50
102
RTVSPost2010PropOp46
 70
     1
102
RTVSPost2010Prop47
 90
       50
102
RTVSPost2010PropOp47
 70
     1
102
RTVSPost2010Prop48
 90
       50
102
RTVSPost2010PropOp48
 70
     1
102
RTVSPost2010Prop49
280
     0
102
RTVSPost2010PropOp49
 70
     1
102
RTVSPost2010Prop50
 90
       50
102
RTVSPost2010PropOp50
 70
     1
102
RTVSPost2010Prop51ColorIndex
 90
      256
102
RTVSPost2010Prop51ColorRGB
 90
-16777216
102
RTVSPost2010PropOp51
 70
     0
102
RTVSPost2010Prop52
140
1.0
102
RTVSPost2010PropOp52
 70
     0
102
RTVSPost2010Prop53
 90
        2
102
RTVSPost2010PropOp53
 70
     1
102
RTVSPost2010Prop54
  1
strokes_ogs.tif
102
RTVSPost2010PropOp54
 70
     1
102
RTVSPost2010Prop55
280
     0
102
RTVSPost2010PropOp55
 70
     1
102
RTVSPost2010Prop56
140
1.0
102
RTVSPost2010PropOp56
 70
     1
102
RTVSPost2010Prop57
140
1.0
102
RTVSPost2010PropOp57
 70
     1
  0
XRECORD
  5
6382
102
{ACAD_REACTORS
330
6381
102
}
330
6381
100
AcDbXrecord
280
     1
102
RTVSPropertyOp0
 70
     1
102
RTVSPropertyOp1
 70
     1
102
RTVSPropertyOp2
 70
     1
102
RTVSPropertyOp3
 70
     1
102
RTVSPropertyOp4
 70
     1
102
RTVSPropertyOp5
 70
     1
102
RTVSPropertyOp6
 70
     1
102
RTVSPropertyOp7
 70
     1
102
RTVSPropertyOp8
 70
     1
102
RTVSPropertyOp9
 70
     1
102
RTVSPropertyOp10
 70
     1
102
RTVSPropertyOp11
 70
     1
102
RTVSPropertyOp12
 70
     1
102
RTVSPropertyOp13
 70
     1
102
RTVSPropertyOp14
 70
     1
102
RTVSPropertyOp15
 70
     1
102
RTVSPropertyOp16
 70
     1
102
RTVSPropertyOp17
 70
     1
102
RTVSPropertyOp18
 70
     1
102
RTVSPropertyOp19
 70
     1
102
RTVSPropertyOp20
 70
     1
102
RTVSPropertyOp21
 70
     1
102
RTVSPropertyOp22
 70
     1
102
RTVSPropertyOp23
 70
     1
102
RTVSPropertyOp24
 70
     1
102
RTVSPropertyOp25
 70
     1
102
RTVSPropertyOp26
 70
     1
102
RTVSPropertyOp27
 70
     1
102
RTVSPropertyOp28
 70
     1
102
RTVSPropertyOp29
 70
     1
102
RTVSPropertyOp30
 70
     1
102
RTVSPropertyOp31
 70
     1
102
RTVSPropertyOp32
 70
     1
102
RTVSPropertyOp33
 70
     1
102
RTVSPropertyOp34
 70
     1
102
RTVSPropertyOp35
 70
     1
102
RTVSPropertyOp36
 70
     1
102
RTVSPropertyOp37
 70
     1
102
RTVSPropertyOp38
 70
     1
102
RTVSPropertyOp39
 70
     1
102
RTVSPropertyOp40
 70
     1
102
RTVSPropertyOp41
 70
     1
102
RTVSPropertyOp42
 70
     1
102
RTVSPropertyOp43
 70
     1
102
RTVSPropertyOp44
 70
     1
102
RTVSPropertyOp45
 70
     1
102
RTVSPropertyOp46
 70
     1
102
RTVSPropertyOp47
 70
     1
102
RTVSPropertyOp48
 70
     1
102
RTVSPropertyOp49
 70
     1
102
RTVSPropertyOp50
 70
     1
102
RTVSPropertyOp51
 70
     0
102
RTVSPropertyOp52
 70
     0
102
RTVSPropertyOp53
 70
     1
102
RTVSPropertyOp54
 70
     1
102
RTVSPropertyOp55
 70
     1
102
RTVSPropertyOp56
 70
     1
102
RTVSPropertyOp57
 70
     1
102
RTVSPost2010Prop28
280
     0
102
RTVSPost2010PropOp28
 70
     1
102
RTVSPost2010Prop29
280
     1
102
RTVSPost2010PropOp29
 70
     1
102
RTVSPost2010Prop30
280
     1
102
RTVSPost2010PropOp30
 70
     1
102
RTVSPost2010Prop31
280
     0
102
RTVSPost2010PropOp31
 70
     1
102
RTVSPost2010Prop32
280
     0
102
RTVSPost2010PropOp32
 70
     1
102
RTVSPost2010Prop33
280
     0
102
RTVSPost2010PropOp33
 70
     1
102
RTVSPost2010Prop34
280
     0
102
RTVSPost2010PropOp34
 70
     1
102
RTVSPost2010Prop35
280
     0
102
RTVSPost2010PropOp35
 70
     1
102
RTVSPost2010Prop36
280
     0
102
RTVSPost2010PropOp36
 70
     1
102
RTVSPost2010Prop37
 90
       50
102
RTVSPost2010PropOp37
 70
     1
102
RTVSPost2010Prop38
140
0.0
102
RTVSPost2010PropOp38
 70
     1
102
RTVSPost2010Prop39
140
1.0
102
RTVSPost2010PropOp39
 70
     1
102
RTVSPost2010Prop40
 90
        0
102
RTVSPost2010PropOp40
 70
     1
102
RTVSPost2010Prop41ColorIndex
 90
       18
102
RTVSPost2010Prop41ColorRGB
 90
        0
102
RTVSPost2010PropOp41
 70
     1
102
RTVSPost2010Prop42
 90
       50
102
RTVSPost2010PropOp42
 70
     1
102
RTVSPost2010Prop43
 90
        3
102
RTVSPost2010PropOp43
 70
     1
102
RTVSPost2010Prop44ColorIndex
 90
        5
102
RTVSPost2010Prop44ColorRGB
 90
      255
102
RTVSPost2010PropOp44
 70
     1
102
RTVSPost2010Prop45
280
     0
102
RTVSPost2010PropOp45
 70
     1
102
RTVSPost2010Prop46
 90
       50
102
RTVSPost2010PropOp46
 70
     1
102
RTVSPost2010Prop47
 90
       50
102
RTVSPost2010PropOp47
 70
     1
102
RTVSPost2010Prop48
 90
       50
102
RTVSPost2010PropOp48
 70
     1
102
RTVSPost2010Prop49
280
     0
102
RTVSPost2010PropOp49
 70
     1
102
RTVSPost2010Prop50
 90
       50
102
RTVSPost2010PropOp50
 70
     1
102
RTVSPost2010Prop51ColorIndex
 90
      256
102
RTVSPost2010Prop51ColorRGB
 90
-16777216
102
RTVSPost2010PropOp51
 70
     0
102
RTVSPost2010Prop52
140
1.0
102
RTVSPost2010PropOp52
 70
     0
102
RTVSPost2010Prop53
 90
        2
102
RTVSPost2010PropOp53
 70
     1
102
RTVSPost2010Prop54
  1
strokes_ogs.tif
102
RTVSPost2010PropOp54
 70
     1
102
RTVSPost2010Prop55
280
     0
102
RTVSPost2010PropOp55
 70
     1
102
RTVSPost2010Prop56
140
1.0
102
RTVSPost2010PropOp56
 70
     1
102
RTVSPost2010Prop57
140
1.0
102
RTVSPost2010PropOp57
 70
     1
  0
XRECORD
  5
6384
102
{ACAD_REACTORS
330
6383
102
}
330
6383
100
AcDbXrecord
280
     1
102
RTVSPropertyOp0
 70
     1
102
RTVSPropertyOp1
 70
     1
102
RTVSPropertyOp2
 70
     1
102
RTVSPropertyOp3
 70
     1
102
RTVSPropertyOp4
 70
     1
102
RTVSPropertyOp5
 70
     1
102
RTVSPropertyOp6
 70
     1
102
RTVSPropertyOp7
 70
     1
102
RTVSPropertyOp8
 70
     1
102
RTVSPropertyOp9
 70
     1
102
RTVSPropertyOp10
 70
     1
102
RTVSPropertyOp11
 70
     1
102
RTVSPropertyOp12
 70
     1
102
RTVSPropertyOp13
 70
     1
102
RTVSPropertyOp14
 70
     1
102
RTVSPropertyOp15
 70
     1
102
RTVSPropertyOp16
 70
     1
102
RTVSPropertyOp17
 70
     1
102
RTVSPropertyOp18
 70
     1
102
RTVSPropertyOp19
 70
     1
102
RTVSPropertyOp20
 70
     1
102
RTVSPropertyOp21
 70
     1
102
RTVSPropertyOp22
 70
     1
102
RTVSPropertyOp23
 70
     1
102
RTVSPropertyOp24
 70
     1
102
RTVSPropertyOp25
 70
     1
102
RTVSPropertyOp26
 70
     1
102
RTVSPropertyOp27
 70
     1
102
RTVSPropertyOp28
 70
     1
102
RTVSPropertyOp29
 70
     1
102
RTVSPropertyOp30
 70
     1
102
RTVSPropertyOp31
 70
     1
102
RTVSPropertyOp32
 70
     1
102
RTVSPropertyOp33
 70
     1
102
RTVSPropertyOp34
 70
     1
102
RTVSPropertyOp35
 70
     1
102
RTVSPropertyOp36
 70
     1
102
RTVSPropertyOp37
 70
     1
102
RTVSPropertyOp38
 70
     1
102
RTVSPropertyOp39
 70
     1
102
RTVSPropertyOp40
 70
     1
102
RTVSPropertyOp41
 70
     1
102
RTVSPropertyOp42
 70
     1
102
RTVSPropertyOp43
 70
     1
102
RTVSPropertyOp44
 70
     1
102
RTVSPropertyOp45
 70
     1
102
RTVSPropertyOp46
 70
     1
102
RTVSPropertyOp47
 70
     1
102
RTVSPropertyOp48
 70
     1
102
RTVSPropertyOp49
 70
     1
102
RTVSPropertyOp50
 70
     1
102
RTVSPropertyOp51
 70
     0
102
RTVSPropertyOp52
 70
     0
102
RTVSPropertyOp53
 70
     1
102
RTVSPropertyOp54
 70
     1
102
RTVSPropertyOp55
 70
     1
102
RTVSPropertyOp56
 70
     1
102
RTVSPropertyOp57
 70
     1
102
RTVSPost2010Prop28
280
     0
102
RTVSPost2010PropOp28
 70
     1
102
RTVSPost2010Prop29
280
     1
102
RTVSPost2010PropOp29
 70
     1
102
RTVSPost2010Prop30
280
     1
102
RTVSPost2010PropOp30
 70
     1
102
RTVSPost2010Prop31
280
     0
102
RTVSPost2010PropOp31
 70
     1
102
RTVSPost2010Prop32
280
     0
102
RTVSPost2010PropOp32
 70
     1
102
RTVSPost2010Prop33
280
     0
102
RTVSPost2010PropOp33
 70
     1
102
RTVSPost2010Prop34
280
     0
102
RTVSPost2010PropOp34
 70
     1
102
RTVSPost2010Prop35
280
     0
102
RTVSPost2010PropOp35
 70
     1
102
RTVSPost2010Prop36
280
     0
102
RTVSPost2010PropOp36
 70
     1
102
RTVSPost2010Prop37
 90
       50
102
RTVSPost2010PropOp37
 70
     1
102
RTVSPost2010Prop38
140
0.0
102
RTVSPost2010PropOp38
 70
     1
102
RTVSPost2010Prop39
140
1.0
102
RTVSPost2010PropOp39
 70
     1
102
RTVSPost2010Prop40
 90
        0
102
RTVSPost2010PropOp40
 70
     1
102
RTVSPost2010Prop41ColorIndex
 90
       18
102
RTVSPost2010Prop41ColorRGB
 90
        0
102
RTVSPost2010PropOp41
 70
     1
102
RTVSPost2010Prop42
 90
       50
102
RTVSPost2010PropOp42
 70
     1
102
RTVSPost2010Prop43
 90
        3
102
RTVSPost2010PropOp43
 70
     1
102
RTVSPost2010Prop44ColorIndex
 90
        5
102
RTVSPost2010Prop44ColorRGB
 90
      255
102
RTVSPost2010PropOp44
 70
     1
102
RTVSPost2010Prop45
280
     0
102
RTVSPost2010PropOp45
 70
     1
102
RTVSPost2010Prop46
 90
       50
102
RTVSPost2010PropOp46
 70
     1
102
RTVSPost2010Prop47
 90
       50
102
RTVSPost2010PropOp47
 70
     1
102
RTVSPost2010Prop48
 90
       50
102
RTVSPost2010PropOp48
 70
     1
102
RTVSPost2010Prop49
280
     0
102
RTVSPost2010PropOp49
 70
     1
102
RTVSPost2010Prop50
 90
       50
102
RTVSPost2010PropOp50
 70
     1
102
RTVSPost2010Prop51ColorIndex
 90
      256
102
RTVSPost2010Prop51ColorRGB
 90
-16777216
102
RTVSPost2010PropOp51
 70
     0
102
RTVSPost2010Prop52
140
1.0
102
RTVSPost2010PropOp52
 70
     0
102
RTVSPost2010Prop53
 90
        2
102
RTVSPost2010PropOp53
 70
     1
102
RTVSPost2010Prop54
  1
strokes_ogs.tif
102
RTVSPost2010PropOp54
 70
     1
102
RTVSPost2010Prop55
280
     0
102
RTVSPost2010PropOp55
 70
     1
102
RTVSPost2010Prop56
140
1.0
102
RTVSPost2010PropOp56
 70
     1
102
RTVSPost2010Prop57
140
1.0
102
RTVSPost2010PropOp57
 70
     1
  0
XRECORD
  5
6386
102
{ACAD_REACTORS
330
6385
102
}
330
6385
100
AcDbXrecord
280
     1
102
RTVSPropertyOp0
 70
     1
102
RTVSPropertyOp1
 70
     1
102
RTVSPropertyOp2
 70
     1
102
RTVSPropertyOp3
 70
     1
102
RTVSPropertyOp4
 70
     1
102
RTVSPropertyOp5
 70
     1
102
RTVSPropertyOp6
 70
     1
102
RTVSPropertyOp7
 70
     1
102
RTVSPropertyOp8
 70
     1
102
RTVSPropertyOp9
 70
     1
102
RTVSPropertyOp10
 70
     1
102
RTVSPropertyOp11
 70
     1
102
RTVSPropertyOp12
 70
     1
102
RTVSPropertyOp13
 70
     1
102
RTVSPropertyOp14
 70
     1
102
RTVSPropertyOp15
 70
     1
102
RTVSPropertyOp16
 70
     1
102
RTVSPropertyOp17
 70
     1
102
RTVSPropertyOp18
 70
     1
102
RTVSPropertyOp19
 70
     1
102
RTVSPropertyOp20
 70
     1
102
RTVSPropertyOp21
 70
     1
102
RTVSPropertyOp22
 70
     1
102
RTVSPropertyOp23
 70
     1
102
RTVSPropertyOp24
 70
     1
102
RTVSPropertyOp25
 70
     1
102
RTVSPropertyOp26
 70
     1
102
RTVSPropertyOp27
 70
     1
102
RTVSPropertyOp28
 70
     1
102
RTVSPropertyOp29
 70
     1
102
RTVSPropertyOp30
 70
     1
102
RTVSPropertyOp31
 70
     1
102
RTVSPropertyOp32
 70
     1
102
RTVSPropertyOp33
 70
     1
102
RTVSPropertyOp34
 70
     1
102
RTVSPropertyOp35
 70
     1
102
RTVSPropertyOp36
 70
     1
102
RTVSPropertyOp37
 70
     1
102
RTVSPropertyOp38
 70
     1
102
RTVSPropertyOp39
 70
     1
102
RTVSPropertyOp40
 70
     1
102
RTVSPropertyOp41
 70
     1
102
RTVSPropertyOp42
 70
     1
102
RTVSPropertyOp43
 70
     1
102
RTVSPropertyOp44
 70
     1
102
RTVSPropertyOp45
 70
     1
102
RTVSPropertyOp46
 70
     1
102
RTVSPropertyOp47
 70
     1
102
RTVSPropertyOp48
 70
     1
102
RTVSPropertyOp49
 70
     1
102
RTVSPropertyOp50
 70
     1
102
RTVSPropertyOp51
 70
     0
102
RTVSPropertyOp52
 70
     0
102
RTVSPropertyOp53
 70
     1
102
RTVSPropertyOp54
 70
     1
102
RTVSPropertyOp55
 70
     1
102
RTVSPropertyOp56
 70
     1
102
RTVSPropertyOp57
 70
     1
102
RTVSPost2010Prop28
280
     0
102
RTVSPost2010PropOp28
 70
     1
102
RTVSPost2010Prop29
280
     1
102
RTVSPost2010PropOp29
 70
     1
102
RTVSPost2010Prop30
280
     1
102
RTVSPost2010PropOp30
 70
     1
102
RTVSPost2010Prop31
280
     0
102
RTVSPost2010PropOp31
 70
     1
102
RTVSPost2010Prop32
280
     0
102
RTVSPost2010PropOp32
 70
     1
102
RTVSPost2010Prop33
280
     0
102
RTVSPost2010PropOp33
 70
     1
102
RTVSPost2010Prop34
280
     0
102
RTVSPost2010PropOp34
 70
     1
102
RTVSPost2010Prop35
280
     0
102
RTVSPost2010PropOp35
 70
     1
102
RTVSPost2010Prop36
280
     0
102
RTVSPost2010PropOp36
 70
     1
102
RTVSPost2010Prop37
 90
       50
102
RTVSPost2010PropOp37
 70
     1
102
RTVSPost2010Prop38
140
0.0
102
RTVSPost2010PropOp38
 70
     1
102
RTVSPost2010Prop39
140
1.0
102
RTVSPost2010PropOp39
 70
     1
102
RTVSPost2010Prop40
 90
        0
102
RTVSPost2010PropOp40
 70
     1
102
RTVSPost2010Prop41ColorIndex
 90
       18
102
RTVSPost2010Prop41ColorRGB
 90
        0
102
RTVSPost2010PropOp41
 70
     1
102
RTVSPost2010Prop42
 90
       50
102
RTVSPost2010PropOp42
 70
     1
102
RTVSPost2010Prop43
 90
        3
102
RTVSPost2010PropOp43
 70
     1
102
RTVSPost2010Prop44ColorIndex
 90
        5
102
RTVSPost2010Prop44ColorRGB
 90
      255
102
RTVSPost2010PropOp44
 70
     1
102
RTVSPost2010Prop45
280
     0
102
RTVSPost2010PropOp45
 70
     1
102
RTVSPost2010Prop46
 90
       50
102
RTVSPost2010PropOp46
 70
     1
102
RTVSPost2010Prop47
 90
       50
102
RTVSPost2010PropOp47
 70
     1
102
RTVSPost2010Prop48
 90
       50
102
RTVSPost2010PropOp48
 70
     1
102
RTVSPost2010Prop49
280
     0
102
RTVSPost2010PropOp49
 70
     1
102
RTVSPost2010Prop50
 90
       50
102
RTVSPost2010PropOp50
 70
     1
102
RTVSPost2010Prop51ColorIndex
 90
      256
102
RTVSPost2010Prop51ColorRGB
 90
-16777216
102
RTVSPost2010PropOp51
 70
     0
102
RTVSPost2010Prop52
140
1.0
102
RTVSPost2010PropOp52
 70
     0
102
RTVSPost2010Prop53
 90
        2
102
RTVSPost2010PropOp53
 70
     1
102
RTVSPost2010Prop54
  1
strokes_ogs.tif
102
RTVSPost2010PropOp54
 70
     1
102
RTVSPost2010Prop55
280
     0
102
RTVSPost2010PropOp55
 70
     1
102
RTVSPost2010Prop56
140
1.0
102
RTVSPost2010PropOp56
 70
     1
102
RTVSPost2010Prop57
140
1.0
102
RTVSPost2010PropOp57
 70
     1
  0
XRECORD
  5
6388
102
{ACAD_REACTORS
330
6387
102
}
330
6387
100
AcDbXrecord
280
     1
102
RTVSPropertyOp0
 70
     1
102
RTVSPropertyOp1
 70
     1
102
RTVSPropertyOp2
 70
     1
102
RTVSPropertyOp3
 70
     1
102
RTVSPropertyOp4
 70
     1
102
RTVSPropertyOp5
 70
     1
102
RTVSPropertyOp6
 70
     1
102
RTVSPropertyOp7
 70
     1
102
RTVSPropertyOp8
 70
     1
102
RTVSPropertyOp9
 70
     1
102
RTVSPropertyOp10
 70
     1
102
RTVSPropertyOp11
 70
     1
102
RTVSPropertyOp12
 70
     1
102
RTVSPropertyOp13
 70
     1
102
RTVSPropertyOp14
 70
     1
102
RTVSPropertyOp15
 70
     1
102
RTVSPropertyOp16
 70
     1
102
RTVSPropertyOp17
 70
     1
102
RTVSPropertyOp18
 70
     1
102
RTVSPropertyOp19
 70
     1
102
RTVSPropertyOp20
 70
     1
102
RTVSPropertyOp21
 70
     1
102
RTVSPropertyOp22
 70
     1
102
RTVSPropertyOp23
 70
     1
102
RTVSPropertyOp24
 70
     1
102
RTVSPropertyOp25
 70
     1
102
RTVSPropertyOp26
 70
     1
102
RTVSPropertyOp27
 70
     1
102
RTVSPropertyOp28
 70
     1
102
RTVSPropertyOp29
 70
     1
102
RTVSPropertyOp30
 70
     1
102
RTVSPropertyOp31
 70
     1
102
RTVSPropertyOp32
 70
     1
102
RTVSPropertyOp33
 70
     1
102
RTVSPropertyOp34
 70
     1
102
RTVSPropertyOp35
 70
     1
102
RTVSPropertyOp36
 70
     1
102
RTVSPropertyOp37
 70
     1
102
RTVSPropertyOp38
 70
     1
102
RTVSPropertyOp39
 70
     1
102
RTVSPropertyOp40
 70
     1
102
RTVSPropertyOp41
 70
     1
102
RTVSPropertyOp42
 70
     1
102
RTVSPropertyOp43
 70
     1
102
RTVSPropertyOp44
 70
     1
102
RTVSPropertyOp45
 70
     1
102
RTVSPropertyOp46
 70
     1
102
RTVSPropertyOp47
 70
     1
102
RTVSPropertyOp48
 70
     1
102
RTVSPropertyOp49
 70
     1
102
RTVSPropertyOp50
 70
     1
102
RTVSPropertyOp51
 70
     0
102
RTVSPropertyOp52
 70
     0
102
RTVSPropertyOp53
 70
     1
102
RTVSPropertyOp54
 70
     1
102
RTVSPropertyOp55
 70
     1
102
RTVSPropertyOp56
 70
     1
102
RTVSPropertyOp57
 70
     1
102
RTVSPost2010Prop28
280
     0
102
RTVSPost2010PropOp28
 70
     1
102
RTVSPost2010Prop29
280
     1
102
RTVSPost2010PropOp29
 70
     1
102
RTVSPost2010Prop30
280
     1
102
RTVSPost2010PropOp30
 70
     1
102
RTVSPost2010Prop31
280
     0
102
RTVSPost2010PropOp31
 70
     1
102
RTVSPost2010Prop32
280
     0
102
RTVSPost2010PropOp32
 70
     1
102
RTVSPost2010Prop33
280
     0
102
RTVSPost2010PropOp33
 70
     1
102
RTVSPost2010Prop34
280
     0
102
RTVSPost2010PropOp34
 70
     1
102
RTVSPost2010Prop35
280
     0
102
RTVSPost2010PropOp35
 70
     1
102
RTVSPost2010Prop36
280
     0
102
RTVSPost2010PropOp36
 70
     1
102
RTVSPost2010Prop37
 90
       50
102
RTVSPost2010PropOp37
 70
     1
102
RTVSPost2010Prop38
140
0.0
102
RTVSPost2010PropOp38
 70
     1
102
RTVSPost2010Prop39
140
1.0
102
RTVSPost2010PropOp39
 70
     1
102
RTVSPost2010Prop40
 90
        0
102
RTVSPost2010PropOp40
 70
     1
102
RTVSPost2010Prop41ColorIndex
 90
       18
102
RTVSPost2010Prop41ColorRGB
 90
        0
102
RTVSPost2010PropOp41
 70
     1
102
RTVSPost2010Prop42
 90
       50
102
RTVSPost2010PropOp42
 70
     1
102
RTVSPost2010Prop43
 90
        3
102
RTVSPost2010PropOp43
 70
     1
102
RTVSPost2010Prop44ColorIndex
 90
        5
102
RTVSPost2010Prop44ColorRGB
 90
      255
102
RTVSPost2010PropOp44
 70
     1
102
RTVSPost2010Prop45
280
     0
102
RTVSPost2010PropOp45
 70
     1
102
RTVSPost2010Prop46
 90
       50
102
RTVSPost2010PropOp46
 70
     1
102
RTVSPost2010Prop47
 90
       50
102
RTVSPost2010PropOp47
 70
     1
102
RTVSPost2010Prop48
 90
       50
102
RTVSPost2010PropOp48
 70
     1
102
RTVSPost2010Prop49
280
     0
102
RTVSPost2010PropOp49
 70
     1
102
RTVSPost2010Prop50
 90
       50
102
RTVSPost2010PropOp50
 70
     1
102
RTVSPost2010Prop51ColorIndex
 90
      256
102
RTVSPost2010Prop51ColorRGB
 90
-16777216
102
RTVSPost2010PropOp51
 70
     0
102
RTVSPost2010Prop52
140
1.0
102
RTVSPost2010PropOp52
 70
     0
102
RTVSPost2010Prop53
 90
        2
102
RTVSPost2010PropOp53
 70
     1
102
RTVSPost2010Prop54
  1
strokes_ogs.tif
102
RTVSPost2010PropOp54
 70
     1
102
RTVSPost2010Prop55
280
     0
102
RTVSPost2010PropOp55
 70
     1
102
RTVSPost2010Prop56
140
1.0
102
RTVSPost2010PropOp56
 70
     1
102
RTVSPost2010Prop57
140
1.0
102
RTVSPost2010PropOp57
 70
     1
  0
XRECORD
  5
638A
102
{ACAD_REACTORS
330
6389
102
}
330
6389
100
AcDbXrecord
280
     1
102
RTVSPropertyOp0
 70
     1
102
RTVSPropertyOp1
 70
     1
102
RTVSPropertyOp2
 70
     1
102
RTVSPropertyOp3
 70
     1
102
RTVSPropertyOp4
 70
     1
102
RTVSPropertyOp5
 70
     1
102
RTVSPropertyOp6
 70
     1
102
RTVSPropertyOp7
 70
     1
102
RTVSPropertyOp8
 70
     1
102
RTVSPropertyOp9
 70
     1
102
RTVSPropertyOp10
 70
     1
102
RTVSPropertyOp11
 70
     1
102
RTVSPropertyOp12
 70
     1
102
RTVSPropertyOp13
 70
     1
102
RTVSPropertyOp14
 70
     1
102
RTVSPropertyOp15
 70
     1
102
RTVSPropertyOp16
 70
     1
102
RTVSPropertyOp17
 70
     1
102
RTVSPropertyOp18
 70
     1
102
RTVSPropertyOp19
 70
     1
102
RTVSPropertyOp20
 70
     1
102
RTVSPropertyOp21
 70
     1
102
RTVSPropertyOp22
 70
     1
102
RTVSPropertyOp23
 70
     1
102
RTVSPropertyOp24
 70
     1
102
RTVSPropertyOp25
 70
     1
102
RTVSPropertyOp26
 70
     1
102
RTVSPropertyOp27
 70
     1
102
RTVSPropertyOp28
 70
     1
102
RTVSPropertyOp29
 70
     1
102
RTVSPropertyOp30
 70
     1
102
RTVSPropertyOp31
 70
     1
102
RTVSPropertyOp32
 70
     1
102
RTVSPropertyOp33
 70
     1
102
RTVSPropertyOp34
 70
     1
102
RTVSPropertyOp35
 70
     1
102
RTVSPropertyOp36
 70
     1
102
RTVSPropertyOp37
 70
     1
102
RTVSPropertyOp38
 70
     1
102
RTVSPropertyOp39
 70
     1
102
RTVSPropertyOp40
 70
     1
102
RTVSPropertyOp41
 70
     1
102
RTVSPropertyOp42
 70
     1
102
RTVSPropertyOp43
 70
     1
102
RTVSPropertyOp44
 70
     1
102
RTVSPropertyOp45
 70
     1
102
RTVSPropertyOp46
 70
     1
102
RTVSPropertyOp47
 70
     1
102
RTVSPropertyOp48
 70
     1
102
RTVSPropertyOp49
 70
     1
102
RTVSPropertyOp50
 70
     1
102
RTVSPropertyOp51
 70
     0
102
RTVSPropertyOp52
 70
     0
102
RTVSPropertyOp53
 70
     1
102
RTVSPropertyOp54
 70
     1
102
RTVSPropertyOp55
 70
     1
102
RTVSPropertyOp56
 70
     1
102
RTVSPropertyOp57
 70
     1
102
RTVSPost2010Prop28
280
     0
102
RTVSPost2010PropOp28
 70
     1
102
RTVSPost2010Prop29
280
     1
102
RTVSPost2010PropOp29
 70
     1
102
RTVSPost2010Prop30
280
     1
102
RTVSPost2010PropOp30
 70
     1
102
RTVSPost2010Prop31
280
     0
102
RTVSPost2010PropOp31
 70
     1
102
RTVSPost2010Prop32
280
     0
102
RTVSPost2010PropOp32
 70
     1
102
RTVSPost2010Prop33
280
     0
102
RTVSPost2010PropOp33
 70
     1
102
RTVSPost2010Prop34
280
     0
102
RTVSPost2010PropOp34
 70
     1
102
RTVSPost2010Prop35
280
     0
102
RTVSPost2010PropOp35
 70
     1
102
RTVSPost2010Prop36
280
     0
102
RTVSPost2010PropOp36
 70
     1
102
RTVSPost2010Prop37
 90
       50
102
RTVSPost2010PropOp37
 70
     1
102
RTVSPost2010Prop38
140
0.0
102
RTVSPost2010PropOp38
 70
     1
102
RTVSPost2010Prop39
140
1.0
102
RTVSPost2010PropOp39
 70
     1
102
RTVSPost2010Prop40
 90
        0
102
RTVSPost2010PropOp40
 70
     1
102
RTVSPost2010Prop41ColorIndex
 90
       18
102
RTVSPost2010Prop41ColorRGB
 90
        0
102
RTVSPost2010PropOp41
 70
     1
102
RTVSPost2010Prop42
 90
       50
102
RTVSPost2010PropOp42
 70
     1
102
RTVSPost2010Prop43
 90
        3
102
RTVSPost2010PropOp43
 70
     1
102
RTVSPost2010Prop44ColorIndex
 90
        5
102
RTVSPost2010Prop44ColorRGB
 90
      255
102
RTVSPost2010PropOp44
 70
     1
102
RTVSPost2010Prop45
280
     0
102
RTVSPost2010PropOp45
 70
     1
102
RTVSPost2010Prop46
 90
       50
102
RTVSPost2010PropOp46
 70
     1
102
RTVSPost2010Prop47
 90
       50
102
RTVSPost2010PropOp47
 70
     1
102
RTVSPost2010Prop48
 90
       50
102
RTVSPost2010PropOp48
 70
     1
102
RTVSPost2010Prop49
280
     0
102
RTVSPost2010PropOp49
 70
     1
102
RTVSPost2010Prop50
 90
       50
102
RTVSPost2010PropOp50
 70
     1
102
RTVSPost2010Prop51ColorIndex
 90
      256
102
RTVSPost2010Prop51ColorRGB
 90
-16777216
102
RTVSPost2010PropOp51
 70
     0
102
RTVSPost2010Prop52
140
1.0
102
RTVSPost2010PropOp52
 70
     0
102
RTVSPost2010Prop53
 90
        2
102
RTVSPost2010PropOp53
 70
     1
102
RTVSPost2010Prop54
  1
strokes_ogs.tif
102
RTVSPost2010PropOp54
 70
     1
102
RTVSPost2010Prop55
280
     0
102
RTVSPost2010PropOp55
 70
     1
102
RTVSPost2010Prop56
140
1.0
102
RTVSPost2010PropOp56
 70
     1
102
RTVSPost2010Prop57
140
1.0
102
RTVSPost2010PropOp57
 70
     1
  0
XRECORD
  5
638C
102
{ACAD_REACTORS
330
638B
102
}
330
638B
100
AcDbXrecord
280
     1
102
RTVSPropertyOp0
 70
     0
102
RTVSPropertyOp1
 70
     0
102
RTVSPropertyOp2
 70
     0
102
RTVSPropertyOp3
 70
     0
102
RTVSPropertyOp4
 70
     0
102
RTVSPropertyOp5
 70
     0
102
RTVSPropertyOp6
 70
     0
102
RTVSPropertyOp7
 70
     0
102
RTVSPropertyOp8
 70
     0
102
RTVSPropertyOp9
 70
     0
102
RTVSPropertyOp10
 70
     0
102
RTVSPropertyOp11
 70
     0
102
RTVSPropertyOp12
 70
     0
102
RTVSPropertyOp13
 70
     0
102
RTVSPropertyOp14
 70
     2
102
RTVSPropertyOp15
 70
     0
102
RTVSPropertyOp16
 70
     0
102
RTVSPropertyOp17
 70
     0
102
RTVSPropertyOp18
 70
     0
102
RTVSPropertyOp19
 70
     0
102
RTVSPropertyOp20
 70
     0
102
RTVSPropertyOp21
 70
     0
102
RTVSPropertyOp22
 70
     0
102
RTVSPropertyOp23
 70
     0
102
RTVSPropertyOp24
 70
     0
102
RTVSPropertyOp25
 70
     0
102
RTVSPropertyOp26
 70
     0
102
RTVSPropertyOp27
 70
     0
102
RTVSPropertyOp28
 70
     1
102
RTVSPropertyOp29
 70
     1
102
RTVSPropertyOp30
 70
     1
102
RTVSPropertyOp31
 70
     1
102
RTVSPropertyOp32
 70
     1
102
RTVSPropertyOp33
 70
     1
102
RTVSPropertyOp34
 70
     1
102
RTVSPropertyOp35
 70
     1
102
RTVSPropertyOp36
 70
     1
102
RTVSPropertyOp37
 70
     1
102
RTVSPropertyOp38
 70
     1
102
RTVSPropertyOp39
 70
     1
102
RTVSPropertyOp40
 70
     1
102
RTVSPropertyOp41
 70
     1
102
RTVSPropertyOp42
 70
     1
102
RTVSPropertyOp43
 70
     1
102
RTVSPropertyOp44
 70
     1
102
RTVSPropertyOp45
 70
     1
102
RTVSPropertyOp46
 70
     1
102
RTVSPropertyOp47
 70
     1
102
RTVSPropertyOp48
 70
     1
102
RTVSPropertyOp49
 70
     1
102
RTVSPropertyOp50
 70
     1
102
RTVSPropertyOp51
 70
     0
102
RTVSPropertyOp52
 70
     0
102
RTVSPropertyOp53
 70
     1
102
RTVSPropertyOp54
 70
     1
102
RTVSPropertyOp55
 70
     1
102
RTVSPropertyOp56
 70
     1
102
RTVSPropertyOp57
 70
     1
102
RTVSPost2010Prop28
280
     0
102
RTVSPost2010PropOp28
 70
     1
102
RTVSPost2010Prop29
280
     1
102
RTVSPost2010PropOp29
 70
     1
102
RTVSPost2010Prop30
280
     1
102
RTVSPost2010PropOp30
 70
     1
102
RTVSPost2010Prop31
280
     0
102
RTVSPost2010PropOp31
 70
     1
102
RTVSPost2010Prop32
280
     0
102
RTVSPost2010PropOp32
 70
     1
102
RTVSPost2010Prop33
280
     0
102
RTVSPost2010PropOp33
 70
     1
102
RTVSPost2010Prop34
280
     0
102
RTVSPost2010PropOp34
 70
     1
102
RTVSPost2010Prop35
280
     0
102
RTVSPost2010PropOp35
 70
     1
102
RTVSPost2010Prop36
280
     0
102
RTVSPost2010PropOp36
 70
     1
102
RTVSPost2010Prop37
 90
       50
102
RTVSPost2010PropOp37
 70
     1
102
RTVSPost2010Prop38
140
0.0
102
RTVSPost2010PropOp38
 70
     1
102
RTVSPost2010Prop39
140
1.0
102
RTVSPost2010PropOp39
 70
     1
102
RTVSPost2010Prop40
 90
        0
102
RTVSPost2010PropOp40
 70
     1
102
RTVSPost2010Prop41ColorIndex
 90
       18
102
RTVSPost2010Prop41ColorRGB
 90
        0
102
RTVSPost2010PropOp41
 70
     1
102
RTVSPost2010Prop42
 90
       50
102
RTVSPost2010PropOp42
 70
     1
102
RTVSPost2010Prop43
 90
        3
102
RTVSPost2010PropOp43
 70
     1
102
RTVSPost2010Prop44ColorIndex
 90
        5
102
RTVSPost2010Prop44ColorRGB
 90
      255
102
RTVSPost2010PropOp44
 70
     1
102
RTVSPost2010Prop45
280
     0
102
RTVSPost2010PropOp45
 70
     1
102
RTVSPost2010Prop46
 90
       50
102
RTVSPost2010PropOp46
 70
     1
102
RTVSPost2010Prop47
 90
       50
102
RTVSPost2010PropOp47
 70
     1
102
RTVSPost2010Prop48
 90
       50
102
RTVSPost2010PropOp48
 70
     1
102
RTVSPost2010Prop49
280
     0
102
RTVSPost2010PropOp49
 70
     1
102
RTVSPost2010Prop50
 90
       50
102
RTVSPost2010PropOp50
 70
     1
102
RTVSPost2010Prop51ColorIndex
 90
      256
102
RTVSPost2010Prop51ColorRGB
 90
-16777216
102
RTVSPost2010PropOp51
 70
     0
102
RTVSPost2010Prop52
140
1.0
102
RTVSPost2010PropOp52
 70
     0
102
RTVSPost2010Prop53
 90
        2
102
RTVSPost2010PropOp53
 70
     1
102
RTVSPost2010Prop54
  1
strokes_ogs.tif
102
RTVSPost2010PropOp54
 70
     1
102
RTVSPost2010Prop55
280
     0
102
RTVSPost2010PropOp55
 70
     1
102
RTVSPost2010Prop56
140
1.0
102
RTVSPost2010PropOp56
 70
     1
102
RTVSPost2010Prop57
140
1.0
102
RTVSPost2010PropOp57
 70
     1
  0
XRECORD
  5
638E
102
{ACAD_REACTORS
330
638D
102
}
330
638D
100
AcDbXrecord
280
     1
102
RTVSPropertyOp0
 70
     1
102
RTVSPropertyOp1
 70
     1
102
RTVSPropertyOp2
 70
     1
102
RTVSPropertyOp3
 70
     1
102
RTVSPropertyOp4
 70
     1
102
RTVSPropertyOp5
 70
     1
102
RTVSPropertyOp6
 70
     1
102
RTVSPropertyOp7
 70
     1
102
RTVSPropertyOp8
 70
     1
102
RTVSPropertyOp9
 70
     1
102
RTVSPropertyOp10
 70
     1
102
RTVSPropertyOp11
 70
     1
102
RTVSPropertyOp12
 70
     1
102
RTVSPropertyOp13
 70
     1
102
RTVSPropertyOp14
 70
     1
102
RTVSPropertyOp15
 70
     1
102
RTVSPropertyOp16
 70
     1
102
RTVSPropertyOp17
 70
     1
102
RTVSPropertyOp18
 70
     1
102
RTVSPropertyOp19
 70
     1
102
RTVSPropertyOp20
 70
     1
102
RTVSPropertyOp21
 70
     1
102
RTVSPropertyOp22
 70
     1
102
RTVSPropertyOp23
 70
     1
102
RTVSPropertyOp24
 70
     1
102
RTVSPropertyOp25
 70
     1
102
RTVSPropertyOp26
 70
     1
102
RTVSPropertyOp27
 70
     1
102
RTVSPropertyOp28
 70
     1
102
RTVSPropertyOp29
 70
     1
102
RTVSPropertyOp30
 70
     1
102
RTVSPropertyOp31
 70
     1
102
RTVSPropertyOp32
 70
     1
102
RTVSPropertyOp33
 70
     1
102
RTVSPropertyOp34
 70
     1
102
RTVSPropertyOp35
 70
     1
102
RTVSPropertyOp36
 70
     1
102
RTVSPropertyOp37
 70
     1
102
RTVSPropertyOp38
 70
     1
102
RTVSPropertyOp39
 70
     1
102
RTVSPropertyOp40
 70
     1
102
RTVSPropertyOp41
 70
     1
102
RTVSPropertyOp42
 70
     1
102
RTVSPropertyOp43
 70
     1
102
RTVSPropertyOp44
 70
     1
102
RTVSPropertyOp45
 70
     1
102
RTVSPropertyOp46
 70
     1
102
RTVSPropertyOp47
 70
     1
102
RTVSPropertyOp48
 70
     1
102
RTVSPropertyOp49
 70
     1
102
RTVSPropertyOp50
 70
     1
102
RTVSPropertyOp51
 70
     0
102
RTVSPropertyOp52
 70
     0
102
RTVSPropertyOp53
 70
     1
102
RTVSPropertyOp54
 70
     1
102
RTVSPropertyOp55
 70
     1
102
RTVSPropertyOp56
 70
     1
102
RTVSPropertyOp57
 70
     1
102
RTVSPost2010Prop28
280
     0
102
RTVSPost2010PropOp28
 70
     1
102
RTVSPost2010Prop29
280
     1
102
RTVSPost2010PropOp29
 70
     1
102
RTVSPost2010Prop30
280
     1
102
RTVSPost2010PropOp30
 70
     1
102
RTVSPost2010Prop31
280
     0
102
RTVSPost2010PropOp31
 70
     1
102
RTVSPost2010Prop32
280
     0
102
RTVSPost2010PropOp32
 70
     1
102
RTVSPost2010Prop33
280
     0
102
RTVSPost2010PropOp33
 70
     1
102
RTVSPost2010Prop34
280
     0
102
RTVSPost2010PropOp34
 70
     1
102
RTVSPost2010Prop35
280
     0
102
RTVSPost2010PropOp35
 70
     1
102
RTVSPost2010Prop36
280
     0
102
RTVSPost2010PropOp36
 70
     1
102
RTVSPost2010Prop37
 90
       50
102
RTVSPost2010PropOp37
 70
     1
102
RTVSPost2010Prop38
140
0.0
102
RTVSPost2010PropOp38
 70
     1
102
RTVSPost2010Prop39
140
1.0
102
RTVSPost2010PropOp39
 70
     1
102
RTVSPost2010Prop40
 90
        0
102
RTVSPost2010PropOp40
 70
     1
102
RTVSPost2010Prop41ColorIndex
 90
       18
102
RTVSPost2010Prop41ColorRGB
 90
        0
102
RTVSPost2010PropOp41
 70
     1
102
RTVSPost2010Prop42
 90
       50
102
RTVSPost2010PropOp42
 70
     1
102
RTVSPost2010Prop43
 90
        3
102
RTVSPost2010PropOp43
 70
     1
102
RTVSPost2010Prop44ColorIndex
 90
        5
102
RTVSPost2010Prop44ColorRGB
 90
      255
102
RTVSPost2010PropOp44
 70
     1
102
RTVSPost2010Prop45
280
     0
102
RTVSPost2010PropOp45
 70
     1
102
RTVSPost2010Prop46
 90
       50
102
RTVSPost2010PropOp46
 70
     1
102
RTVSPost2010Prop47
 90
       50
102
RTVSPost2010PropOp47
 70
     1
102
RTVSPost2010Prop48
 90
       50
102
RTVSPost2010PropOp48
 70
     1
102
RTVSPost2010Prop49
280
     0
102
RTVSPost2010PropOp49
 70
     1
102
RTVSPost2010Prop50
 90
       50
102
RTVSPost2010PropOp50
 70
     1
102
RTVSPost2010Prop51ColorIndex
 90
      256
102
RTVSPost2010Prop51ColorRGB
 90
-16777216
102
RTVSPost2010PropOp51
 70
     0
102
RTVSPost2010Prop52
140
1.0
102
RTVSPost2010PropOp52
 70
     0
102
RTVSPost2010Prop53
 90
        2
102
RTVSPost2010PropOp53
 70
     1
102
RTVSPost2010Prop54
  1
strokes_ogs.tif
102
RTVSPost2010PropOp54
 70
     1
102
RTVSPost2010Prop55
280
     0
102
RTVSPost2010PropOp55
 70
     1
102
RTVSPost2010Prop56
140
1.0
102
RTVSPost2010PropOp56
 70
     1
102
RTVSPost2010Prop57
140
1.0
102
RTVSPost2010PropOp57
 70
     1
  0
XRECORD
  5
6390
102
{ACAD_REACTORS
330
638F
102
}
330
638F
100
AcDbXrecord
280
     1
102
RTVSPropertyOp0
 70
     0
102
RTVSPropertyOp1
 70
     0
102
RTVSPropertyOp2
 70
     0
102
RTVSPropertyOp3
 70
     0
102
RTVSPropertyOp4
 70
     0
102
RTVSPropertyOp5
 70
     0
102
RTVSPropertyOp6
 70
     0
102
RTVSPropertyOp7
 70
     0
102
RTVSPropertyOp8
 70
     0
102
RTVSPropertyOp9
 70
     0
102
RTVSPropertyOp10
 70
     0
102
RTVSPropertyOp11
 70
     0
102
RTVSPropertyOp12
 70
     0
102
RTVSPropertyOp13
 70
     0
102
RTVSPropertyOp14
 70
     2
102
RTVSPropertyOp15
 70
     0
102
RTVSPropertyOp16
 70
     0
102
RTVSPropertyOp17
 70
     0
102
RTVSPropertyOp18
 70
     0
102
RTVSPropertyOp19
 70
     0
102
RTVSPropertyOp20
 70
     0
102
RTVSPropertyOp21
 70
     0
102
RTVSPropertyOp22
 70
     0
102
RTVSPropertyOp23
 70
     0
102
RTVSPropertyOp24
 70
     0
102
RTVSPropertyOp25
 70
     0
102
RTVSPropertyOp26
 70
     0
102
RTVSPropertyOp27
 70
     0
102
RTVSPropertyOp28
 70
     1
102
RTVSPropertyOp29
 70
     1
102
RTVSPropertyOp30
 70
     1
102
RTVSPropertyOp31
 70
     1
102
RTVSPropertyOp32
 70
     1
102
RTVSPropertyOp33
 70
     1
102
RTVSPropertyOp34
 70
     1
102
RTVSPropertyOp35
 70
     1
102
RTVSPropertyOp36
 70
     1
102
RTVSPropertyOp37
 70
     1
102
RTVSPropertyOp38
 70
     1
102
RTVSPropertyOp39
 70
     1
102
RTVSPropertyOp40
 70
     1
102
RTVSPropertyOp41
 70
     1
102
RTVSPropertyOp42
 70
     1
102
RTVSPropertyOp43
 70
     1
102
RTVSPropertyOp44
 70
     1
102
RTVSPropertyOp45
 70
     1
102
RTVSPropertyOp46
 70
     1
102
RTVSPropertyOp47
 70
     1
102
RTVSPropertyOp48
 70
     1
102
RTVSPropertyOp49
 70
     1
102
RTVSPropertyOp50
 70
     1
102
RTVSPropertyOp51
 70
     0
102
RTVSPropertyOp52
 70
     0
102
RTVSPropertyOp53
 70
     1
102
RTVSPropertyOp54
 70
     1
102
RTVSPropertyOp55
 70
     1
102
RTVSPropertyOp56
 70
     1
102
RTVSPropertyOp57
 70
     1
102
RTVSPost2010Prop28
280
     0
102
RTVSPost2010PropOp28
 70
     1
102
RTVSPost2010Prop29
280
     1
102
RTVSPost2010PropOp29
 70
     1
102
RTVSPost2010Prop30
280
     1
102
RTVSPost2010PropOp30
 70
     1
102
RTVSPost2010Prop31
280
     0
102
RTVSPost2010PropOp31
 70
     1
102
RTVSPost2010Prop32
280
     0
102
RTVSPost2010PropOp32
 70
     1
102
RTVSPost2010Prop33
280
     0
102
RTVSPost2010PropOp33
 70
     1
102
RTVSPost2010Prop34
280
     0
102
RTVSPost2010PropOp34
 70
     1
102
RTVSPost2010Prop35
280
     0
102
RTVSPost2010PropOp35
 70
     1
102
RTVSPost2010Prop36
280
     0
102
RTVSPost2010PropOp36
 70
     1
102
RTVSPost2010Prop37
 90
       50
102
RTVSPost2010PropOp37
 70
     1
102
RTVSPost2010Prop38
140
0.0
102
RTVSPost2010PropOp38
 70
     1
102
RTVSPost2010Prop39
140
1.0
102
RTVSPost2010PropOp39
 70
     1
102
RTVSPost2010Prop40
 90
        0
102
RTVSPost2010PropOp40
 70
     1
102
RTVSPost2010Prop41ColorIndex
 90
       18
102
RTVSPost2010Prop41ColorRGB
 90
        0
102
RTVSPost2010PropOp41
 70
     1
102
RTVSPost2010Prop42
 90
       50
102
RTVSPost2010PropOp42
 70
     1
102
RTVSPost2010Prop43
 90
        3
102
RTVSPost2010PropOp43
 70
     1
102
RTVSPost2010Prop44ColorIndex
 90
        5
102
RTVSPost2010Prop44ColorRGB
 90
      255
102
RTVSPost2010PropOp44
 70
     1
102
RTVSPost2010Prop45
280
     0
102
RTVSPost2010PropOp45
 70
     1
102
RTVSPost2010Prop46
 90
       50
102
RTVSPost2010PropOp46
 70
     1
102
RTVSPost2010Prop47
 90
       50
102
RTVSPost2010PropOp47
 70
     1
102
RTVSPost2010Prop48
 90
       50
102
RTVSPost2010PropOp48
 70
     1
102
RTVSPost2010Prop49
280
     0
102
RTVSPost2010PropOp49
 70
     1
102
RTVSPost2010Prop50
 90
       50
102
RTVSPost2010PropOp50
 70
     1
102
RTVSPost2010Prop51ColorIndex
 90
      256
102
RTVSPost2010Prop51ColorRGB
 90
-16777216
102
RTVSPost2010PropOp51
 70
     0
102
RTVSPost2010Prop52
140
1.0
102
RTVSPost2010PropOp52
 70
     0
102
RTVSPost2010Prop53
 90
        2
102
RTVSPost2010PropOp53
 70
     1
102
RTVSPost2010Prop54
  1
strokes_ogs.tif
102
RTVSPost2010PropOp54
 70
     1
102
RTVSPost2010Prop55
280
     0
102
RTVSPost2010PropOp55
 70
     1
102
RTVSPost2010Prop56
140
1.0
102
RTVSPost2010PropOp56
 70
     1
102
RTVSPost2010Prop57
140
1.0
102
RTVSPost2010PropOp57
 70
     1
  0
XRECORD
  5
6392
102
{ACAD_REACTORS
330
6391
102
}
330
6391
100
AcDbXrecord
280
     1
102
RTVSPropertyOp0
 70
     1
102
RTVSPropertyOp1
 70
     1
102
RTVSPropertyOp2
 70
     1
102
RTVSPropertyOp3
 70
     1
102
RTVSPropertyOp4
 70
     1
102
RTVSPropertyOp5
 70
     1
102
RTVSPropertyOp6
 70
     1
102
RTVSPropertyOp7
 70
     1
102
RTVSPropertyOp8
 70
     1
102
RTVSPropertyOp9
 70
     1
102
RTVSPropertyOp10
 70
     1
102
RTVSPropertyOp11
 70
     1
102
RTVSPropertyOp12
 70
     1
102
RTVSPropertyOp13
 70
     1
102
RTVSPropertyOp14
 70
     1
102
RTVSPropertyOp15
 70
     1
102
RTVSPropertyOp16
 70
     1
102
RTVSPropertyOp17
 70
     1
102
RTVSPropertyOp18
 70
     1
102
RTVSPropertyOp19
 70
     1
102
RTVSPropertyOp20
 70
     1
102
RTVSPropertyOp21
 70
     1
102
RTVSPropertyOp22
 70
     1
102
RTVSPropertyOp23
 70
     1
102
RTVSPropertyOp24
 70
     1
102
RTVSPropertyOp25
 70
     1
102
RTVSPropertyOp26
 70
     1
102
RTVSPropertyOp27
 70
     1
102
RTVSPropertyOp28
 70
     1
102
RTVSPropertyOp29
 70
     1
102
RTVSPropertyOp30
 70
     1
102
RTVSPropertyOp31
 70
     1
102
RTVSPropertyOp32
 70
     1
102
RTVSPropertyOp33
 70
     1
102
RTVSPropertyOp34
 70
     1
102
RTVSPropertyOp35
 70
     1
102
RTVSPropertyOp36
 70
     1
102
RTVSPropertyOp37
 70
     1
102
RTVSPropertyOp38
 70
     1
102
RTVSPropertyOp39
 70
     1
102
RTVSPropertyOp40
 70
     1
102
RTVSPropertyOp41
 70
     1
102
RTVSPropertyOp42
 70
     1
102
RTVSPropertyOp43
 70
     1
102
RTVSPropertyOp44
 70
     1
102
RTVSPropertyOp45
 70
     1
102
RTVSPropertyOp46
 70
     1
102
RTVSPropertyOp47
 70
     1
102
RTVSPropertyOp48
 70
     1
102
RTVSPropertyOp49
 70
     1
102
RTVSPropertyOp50
 70
     1
102
RTVSPropertyOp51
 70
     0
102
RTVSPropertyOp52
 70
     0
102
RTVSPropertyOp53
 70
     1
102
RTVSPropertyOp54
 70
     1
102
RTVSPropertyOp55
 70
     1
102
RTVSPropertyOp56
 70
     1
102
RTVSPropertyOp57
 70
     1
102
RTVSPost2010Prop28
280
     0
102
RTVSPost2010PropOp28
 70
     1
102
RTVSPost2010Prop29
280
     1
102
RTVSPost2010PropOp29
 70
     1
102
RTVSPost2010Prop30
280
     1
102
RTVSPost2010PropOp30
 70
     1
102
RTVSPost2010Prop31
280
     0
102
RTVSPost2010PropOp31
 70
     1
102
RTVSPost2010Prop32
280
     0
102
RTVSPost2010PropOp32
 70
     1
102
RTVSPost2010Prop33
280
     0
102
RTVSPost2010PropOp33
 70
     1
102
RTVSPost2010Prop34
280
     0
102
RTVSPost2010PropOp34
 70
     1
102
RTVSPost2010Prop35
280
     0
102
RTVSPost2010PropOp35
 70
     1
102
RTVSPost2010Prop36
280
     0
102
RTVSPost2010PropOp36
 70
     1
102
RTVSPost2010Prop37
 90
       50
102
RTVSPost2010PropOp37
 70
     1
102
RTVSPost2010Prop38
140
0.0
102
RTVSPost2010PropOp38
 70
     1
102
RTVSPost2010Prop39
140
1.0
102
RTVSPost2010PropOp39
 70
     1
102
RTVSPost2010Prop40
 90
        0
102
RTVSPost2010PropOp40
 70
     1
102
RTVSPost2010Prop41ColorIndex
 90
       18
102
RTVSPost2010Prop41ColorRGB
 90
        0
102
RTVSPost2010PropOp41
 70
     1
102
RTVSPost2010Prop42
 90
       50
102
RTVSPost2010PropOp42
 70
     1
102
RTVSPost2010Prop43
 90
        3
102
RTVSPost2010PropOp43
 70
     1
102
RTVSPost2010Prop44ColorIndex
 90
        5
102
RTVSPost2010Prop44ColorRGB
 90
      255
102
RTVSPost2010PropOp44
 70
     1
102
RTVSPost2010Prop45
280
     0
102
RTVSPost2010PropOp45
 70
     1
102
RTVSPost2010Prop46
 90
       50
102
RTVSPost2010PropOp46
 70
     1
102
RTVSPost2010Prop47
 90
       50
102
RTVSPost2010PropOp47
 70
     1
102
RTVSPost2010Prop48
 90
       50
102
RTVSPost2010PropOp48
 70
     1
102
RTVSPost2010Prop49
280
     0
102
RTVSPost2010PropOp49
 70
     1
102
RTVSPost2010Prop50
 90
       50
102
RTVSPost2010PropOp50
 70
     1
102
RTVSPost2010Prop51ColorIndex
 90
      256
102
RTVSPost2010Prop51ColorRGB
 90
-16777216
102
RTVSPost2010PropOp51
 70
     0
102
RTVSPost2010Prop52
140
1.0
102
RTVSPost2010PropOp52
 70
     0
102
RTVSPost2010Prop53
 90
        2
102
RTVSPost2010PropOp53
 70
     1
102
RTVSPost2010Prop54
  1
strokes_ogs.tif
102
RTVSPost2010PropOp54
 70
     1
102
RTVSPost2010Prop55
280
     0
102
RTVSPost2010PropOp55
 70
     1
102
RTVSPost2010Prop56
140
1.0
102
RTVSPost2010PropOp56
 70
     1
102
RTVSPost2010Prop57
140
1.0
102
RTVSPost2010PropOp57
 70
     1
  0
XRECORD
  5
6394
102
{ACAD_REACTORS
330
6393
102
}
330
6393
100
AcDbXrecord
280
     1
102
RTVSPropertyOp0
 70
     1
102
RTVSPropertyOp1
 70
     1
102
RTVSPropertyOp2
 70
     1
102
RTVSPropertyOp3
 70
     1
102
RTVSPropertyOp4
 70
     1
102
RTVSPropertyOp5
 70
     1
102
RTVSPropertyOp6
 70
     1
102
RTVSPropertyOp7
 70
     1
102
RTVSPropertyOp8
 70
     1
102
RTVSPropertyOp9
 70
     1
102
RTVSPropertyOp10
 70
     1
102
RTVSPropertyOp11
 70
     1
102
RTVSPropertyOp12
 70
     1
102
RTVSPropertyOp13
 70
     1
102
RTVSPropertyOp14
 70
     1
102
RTVSPropertyOp15
 70
     1
102
RTVSPropertyOp16
 70
     1
102
RTVSPropertyOp17
 70
     1
102
RTVSPropertyOp18
 70
     1
102
RTVSPropertyOp19
 70
     1
102
RTVSPropertyOp20
 70
     1
102
RTVSPropertyOp21
 70
     1
102
RTVSPropertyOp22
 70
     1
102
RTVSPropertyOp23
 70
     1
102
RTVSPropertyOp24
 70
     1
102
RTVSPropertyOp25
 70
     1
102
RTVSPropertyOp26
 70
     1
102
RTVSPropertyOp27
 70
     1
102
RTVSPropertyOp28
 70
     1
102
RTVSPropertyOp29
 70
     1
102
RTVSPropertyOp30
 70
     1
102
RTVSPropertyOp31
 70
     1
102
RTVSPropertyOp32
 70
     1
102
RTVSPropertyOp33
 70
     1
102
RTVSPropertyOp34
 70
     1
102
RTVSPropertyOp35
 70
     1
102
RTVSPropertyOp36
 70
     1
102
RTVSPropertyOp37
 70
     1
102
RTVSPropertyOp38
 70
     1
102
RTVSPropertyOp39
 70
     1
102
RTVSPropertyOp40
 70
     1
102
RTVSPropertyOp41
 70
     1
102
RTVSPropertyOp42
 70
     1
102
RTVSPropertyOp43
 70
     1
102
RTVSPropertyOp44
 70
     1
102
RTVSPropertyOp45
 70
     1
102
RTVSPropertyOp46
 70
     1
102
RTVSPropertyOp47
 70
     1
102
RTVSPropertyOp48
 70
     1
102
RTVSPropertyOp49
 70
     1
102
RTVSPropertyOp50
 70
     1
102
RTVSPropertyOp51
 70
     0
102
RTVSPropertyOp52
 70
     0
102
RTVSPropertyOp53
 70
     1
102
RTVSPropertyOp54
 70
     1
102
RTVSPropertyOp55
 70
     1
102
RTVSPropertyOp56
 70
     1
102
RTVSPropertyOp57
 70
     1
102
RTVSPost2010Prop28
280
     0
102
RTVSPost2010PropOp28
 70
     1
102
RTVSPost2010Prop29
280
     1
102
RTVSPost2010PropOp29
 70
     1
102
RTVSPost2010Prop30
280
     1
102
RTVSPost2010PropOp30
 70
     1
102
RTVSPost2010Prop31
280
     0
102
RTVSPost2010PropOp31
 70
     1
102
RTVSPost2010Prop32
280
     0
102
RTVSPost2010PropOp32
 70
     1
102
RTVSPost2010Prop33
280
     0
102
RTVSPost2010PropOp33
 70
     1
102
RTVSPost2010Prop34
280
     0
102
RTVSPost2010PropOp34
 70
     1
102
RTVSPost2010Prop35
280
     0
102
RTVSPost2010PropOp35
 70
     1
102
RTVSPost2010Prop36
280
     0
102
RTVSPost2010PropOp36
 70
     1
102
RTVSPost2010Prop37
 90
       50
102
RTVSPost2010PropOp37
 70
     1
102
RTVSPost2010Prop38
140
0.0
102
RTVSPost2010PropOp38
 70
     1
102
RTVSPost2010Prop39
140
1.0
102
RTVSPost2010PropOp39
 70
     1
102
RTVSPost2010Prop40
 90
        0
102
RTVSPost2010PropOp40
 70
     1
102
RTVSPost2010Prop41ColorIndex
 90
       18
102
RTVSPost2010Prop41ColorRGB
 90
        0
102
RTVSPost2010PropOp41
 70
     1
102
RTVSPost2010Prop42
 90
       50
102
RTVSPost2010PropOp42
 70
     1
102
RTVSPost2010Prop43
 90
        3
102
RTVSPost2010PropOp43
 70
     1
102
RTVSPost2010Prop44ColorIndex
 90
        5
102
RTVSPost2010Prop44ColorRGB
 90
      255
102
RTVSPost2010PropOp44
 70
     1
102
RTVSPost2010Prop45
280
     0
102
RTVSPost2010PropOp45
 70
     1
102
RTVSPost2010Prop46
 90
       50
102
RTVSPost2010PropOp46
 70
     1
102
RTVSPost2010Prop47
 90
       50
102
RTVSPost2010PropOp47
 70
     1
102
RTVSPost2010Prop48
 90
       50
102
RTVSPost2010PropOp48
 70
     1
102
RTVSPost2010Prop49
280
     0
102
RTVSPost2010PropOp49
 70
     1
102
RTVSPost2010Prop50
 90
       50
102
RTVSPost2010PropOp50
 70
     1
102
RTVSPost2010Prop51ColorIndex
 90
      256
102
RTVSPost2010Prop51ColorRGB
 90
-16777216
102
RTVSPost2010PropOp51
 70
     0
102
RTVSPost2010Prop52
140
1.0
102
RTVSPost2010PropOp52
 70
     0
102
RTVSPost2010Prop53
 90
        2
102
RTVSPost2010PropOp53
 70
     1
102
RTVSPost2010Prop54
  1
strokes_ogs.tif
102
RTVSPost2010PropOp54
 70
     1
102
RTVSPost2010Prop55
280
     0
102
RTVSPost2010PropOp55
 70
     1
102
RTVSPost2010Prop56
140
1.0
102
RTVSPost2010PropOp56
 70
     1
102
RTVSPost2010Prop57
140
1.0
102
RTVSPost2010PropOp57
 70
     1
  0
XRECORD
  5
6396
102
{ACAD_REACTORS
330
6395
102
}
330
6395
100
AcDbXrecord
280
     1
102
RTVSPropertyOp0
 70
     1
102
RTVSPropertyOp1
 70
     1
102
RTVSPropertyOp2
 70
     1
102
RTVSPropertyOp3
 70
     1
102
RTVSPropertyOp4
 70
     1
102
RTVSPropertyOp5
 70
     1
102
RTVSPropertyOp6
 70
     1
102
RTVSPropertyOp7
 70
     1
102
RTVSPropertyOp8
 70
     1
102
RTVSPropertyOp9
 70
     1
102
RTVSPropertyOp10
 70
     1
102
RTVSPropertyOp11
 70
     1
102
RTVSPropertyOp12
 70
     1
102
RTVSPropertyOp13
 70
     1
102
RTVSPropertyOp14
 70
     1
102
RTVSPropertyOp15
 70
     1
102
RTVSPropertyOp16
 70
     1
102
RTVSPropertyOp17
 70
     1
102
RTVSPropertyOp18
 70
     1
102
RTVSPropertyOp19
 70
     1
102
RTVSPropertyOp20
 70
     1
102
RTVSPropertyOp21
 70
     1
102
RTVSPropertyOp22
 70
     1
102
RTVSPropertyOp23
 70
     1
102
RTVSPropertyOp24
 70
     1
102
RTVSPropertyOp25
 70
     1
102
RTVSPropertyOp26
 70
     1
102
RTVSPropertyOp27
 70
     1
102
RTVSPropertyOp28
 70
     1
102
RTVSPropertyOp29
 70
     1
102
RTVSPropertyOp30
 70
     1
102
RTVSPropertyOp31
 70
     1
102
RTVSPropertyOp32
 70
     1
102
RTVSPropertyOp33
 70
     1
102
RTVSPropertyOp34
 70
     1
102
RTVSPropertyOp35
 70
     1
102
RTVSPropertyOp36
 70
     1
102
RTVSPropertyOp37
 70
     1
102
RTVSPropertyOp38
 70
     1
102
RTVSPropertyOp39
 70
     1
102
RTVSPropertyOp40
 70
     1
102
RTVSPropertyOp41
 70
     1
102
RTVSPropertyOp42
 70
     1
102
RTVSPropertyOp43
 70
     1
102
RTVSPropertyOp44
 70
     1
102
RTVSPropertyOp45
 70
     1
102
RTVSPropertyOp46
 70
     1
102
RTVSPropertyOp47
 70
     1
102
RTVSPropertyOp48
 70
     1
102
RTVSPropertyOp49
 70
     1
102
RTVSPropertyOp50
 70
     1
102
RTVSPropertyOp51
 70
     0
102
RTVSPropertyOp52
 70
     0
102
RTVSPropertyOp53
 70
     1
102
RTVSPropertyOp54
 70
     1
102
RTVSPropertyOp55
 70
     1
102
RTVSPropertyOp56
 70
     1
102
RTVSPropertyOp57
 70
     1
102
RTVSPost2010Prop28
280
     0
102
RTVSPost2010PropOp28
 70
     1
102
RTVSPost2010Prop29
280
     1
102
RTVSPost2010PropOp29
 70
     1
102
RTVSPost2010Prop30
280
     1
102
RTVSPost2010PropOp30
 70
     1
102
RTVSPost2010Prop31
280
     0
102
RTVSPost2010PropOp31
 70
     1
102
RTVSPost2010Prop32
280
     0
102
RTVSPost2010PropOp32
 70
     1
102
RTVSPost2010Prop33
280
     0
102
RTVSPost2010PropOp33
 70
     1
102
RTVSPost2010Prop34
280
     0
102
RTVSPost2010PropOp34
 70
     1
102
RTVSPost2010Prop35
280
     0
102
RTVSPost2010PropOp35
 70
     1
102
RTVSPost2010Prop36
280
     0
102
RTVSPost2010PropOp36
 70
     1
102
RTVSPost2010Prop37
 90
       50
102
RTVSPost2010PropOp37
 70
     1
102
RTVSPost2010Prop38
140
0.0
102
RTVSPost2010PropOp38
 70
     1
102
RTVSPost2010Prop39
140
1.0
102
RTVSPost2010PropOp39
 70
     1
102
RTVSPost2010Prop40
 90
        0
102
RTVSPost2010PropOp40
 70
     1
102
RTVSPost2010Prop41ColorIndex
 90
       18
102
RTVSPost2010Prop41ColorRGB
 90
        0
102
RTVSPost2010PropOp41
 70
     1
102
RTVSPost2010Prop42
 90
       50
102
RTVSPost2010PropOp42
 70
     1
102
RTVSPost2010Prop43
 90
        3
102
RTVSPost2010PropOp43
 70
     1
102
RTVSPost2010Prop44ColorIndex
 90
        5
102
RTVSPost2010Prop44ColorRGB
 90
      255
102
RTVSPost2010PropOp44
 70
     1
102
RTVSPost2010Prop45
280
     0
102
RTVSPost2010PropOp45
 70
     1
102
RTVSPost2010Prop46
 90
       50
102
RTVSPost2010PropOp46
 70
     1
102
RTVSPost2010Prop47
 90
       50
102
RTVSPost2010PropOp47
 70
     1
102
RTVSPost2010Prop48
 90
       50
102
RTVSPost2010PropOp48
 70
     1
102
RTVSPost2010Prop49
280
     0
102
RTVSPost2010PropOp49
 70
     1
102
RTVSPost2010Prop50
 90
       50
102
RTVSPost2010PropOp50
 70
     1
102
RTVSPost2010Prop51ColorIndex
 90
      256
102
RTVSPost2010Prop51ColorRGB
 90
-16777216
102
RTVSPost2010PropOp51
 70
     0
102
RTVSPost2010Prop52
140
1.0
102
RTVSPost2010PropOp52
 70
     0
102
RTVSPost2010Prop53
 90
        2
102
RTVSPost2010PropOp53
 70
     1
102
RTVSPost2010Prop54
  1
strokes_ogs.tif
102
RTVSPost2010PropOp54
 70
     1
102
RTVSPost2010Prop55
280
     0
102
RTVSPost2010PropOp55
 70
     1
102
RTVSPost2010Prop56
140
1.0
102
RTVSPost2010PropOp56
 70
     1
102
RTVSPost2010Prop57
140
1.0
102
RTVSPost2010PropOp57
 70
     1
  0
XRECORD
  5
6398
102
{ACAD_REACTORS
330
6397
102
}
330
6397
100
AcDbXrecord
280
     1
102
RTVSPropertyOp0
 70
     1
102
RTVSPropertyOp1
 70
     1
102
RTVSPropertyOp2
 70
     1
102
RTVSPropertyOp3
 70
     1
102
RTVSPropertyOp4
 70
     1
102
RTVSPropertyOp5
 70
     1
102
RTVSPropertyOp6
 70
     1
102
RTVSPropertyOp7
 70
     1
102
RTVSPropertyOp8
 70
     1
102
RTVSPropertyOp9
 70
     1
102
RTVSPropertyOp10
 70
     1
102
RTVSPropertyOp11
 70
     1
102
RTVSPropertyOp12
 70
     1
102
RTVSPropertyOp13
 70
     1
102
RTVSPropertyOp14
 70
     1
102
RTVSPropertyOp15
 70
     1
102
RTVSPropertyOp16
 70
     1
102
RTVSPropertyOp17
 70
     1
102
RTVSPropertyOp18
 70
     1
102
RTVSPropertyOp19
 70
     1
102
RTVSPropertyOp20
 70
     1
102
RTVSPropertyOp21
 70
     1
102
RTVSPropertyOp22
 70
     1
102
RTVSPropertyOp23
 70
     1
102
RTVSPropertyOp24
 70
     1
102
RTVSPropertyOp25
 70
     1
102
RTVSPropertyOp26
 70
     1
102
RTVSPropertyOp27
 70
     1
102
RTVSPropertyOp28
 70
     1
102
RTVSPropertyOp29
 70
     1
102
RTVSPropertyOp30
 70
     1
102
RTVSPropertyOp31
 70
     1
102
RTVSPropertyOp32
 70
     1
102
RTVSPropertyOp33
 70
     1
102
RTVSPropertyOp34
 70
     1
102
RTVSPropertyOp35
 70
     1
102
RTVSPropertyOp36
 70
     1
102
RTVSPropertyOp37
 70
     1
102
RTVSPropertyOp38
 70
     1
102
RTVSPropertyOp39
 70
     1
102
RTVSPropertyOp40
 70
     1
102
RTVSPropertyOp41
 70
     1
102
RTVSPropertyOp42
 70
     1
102
RTVSPropertyOp43
 70
     1
102
RTVSPropertyOp44
 70
     1
102
RTVSPropertyOp45
 70
     1
102
RTVSPropertyOp46
 70
     1
102
RTVSPropertyOp47
 70
     1
102
RTVSPropertyOp48
 70
     1
102
RTVSPropertyOp49
 70
     1
102
RTVSPropertyOp50
 70
     1
102
RTVSPropertyOp51
 70
     0
102
RTVSPropertyOp52
 70
     0
102
RTVSPropertyOp53
 70
     1
102
RTVSPropertyOp54
 70
     1
102
RTVSPropertyOp55
 70
     1
102
RTVSPropertyOp56
 70
     1
102
RTVSPropertyOp57
 70
     1
102
RTVSPost2010Prop28
280
     0
102
RTVSPost2010PropOp28
 70
     1
102
RTVSPost2010Prop29
280
     1
102
RTVSPost2010PropOp29
 70
     1
102
RTVSPost2010Prop30
280
     1
102
RTVSPost2010PropOp30
 70
     1
102
RTVSPost2010Prop31
280
     0
102
RTVSPost2010PropOp31
 70
     1
102
RTVSPost2010Prop32
280
     0
102
RTVSPost2010PropOp32
 70
     1
102
RTVSPost2010Prop33
280
     0
102
RTVSPost2010PropOp33
 70
     1
102
RTVSPost2010Prop34
280
     0
102
RTVSPost2010PropOp34
 70
     1
102
RTVSPost2010Prop35
280
     0
102
RTVSPost2010PropOp35
 70
     1
102
RTVSPost2010Prop36
280
     0
102
RTVSPost2010PropOp36
 70
     1
102
RTVSPost2010Prop37
 90
       50
102
RTVSPost2010PropOp37
 70
     1
102
RTVSPost2010Prop38
140
0.0
102
RTVSPost2010PropOp38
 70
     1
102
RTVSPost2010Prop39
140
1.0
102
RTVSPost2010PropOp39
 70
     1
102
RTVSPost2010Prop40
 90
        0
102
RTVSPost2010PropOp40
 70
     1
102
RTVSPost2010Prop41ColorIndex
 90
       18
102
RTVSPost2010Prop41ColorRGB
 90
        0
102
RTVSPost2010PropOp41
 70
     1
102
RTVSPost2010Prop42
 90
       50
102
RTVSPost2010PropOp42
 70
     1
102
RTVSPost2010Prop43
 90
        3
102
RTVSPost2010PropOp43
 70
     1
102
RTVSPost2010Prop44ColorIndex
 90
        5
102
RTVSPost2010Prop44ColorRGB
 90
      255
102
RTVSPost2010PropOp44
 70
     1
102
RTVSPost2010Prop45
280
     0
102
RTVSPost2010PropOp45
 70
     1
102
RTVSPost2010Prop46
 90
       50
102
RTVSPost2010PropOp46
 70
     1
102
RTVSPost2010Prop47
 90
       50
102
RTVSPost2010PropOp47
 70
     1
102
RTVSPost2010Prop48
 90
       50
102
RTVSPost2010PropOp48
 70
     1
102
RTVSPost2010Prop49
280
     0
102
RTVSPost2010PropOp49
 70
     1
102
RTVSPost2010Prop50
 90
       50
102
RTVSPost2010PropOp50
 70
     1
102
RTVSPost2010Prop51ColorIndex
 90
      256
102
RTVSPost2010Prop51ColorRGB
 90
-16777216
102
RTVSPost2010PropOp51
 70
     0
102
RTVSPost2010Prop52
140
1.0
102
RTVSPost2010PropOp52
 70
     0
102
RTVSPost2010Prop53
 90
        2
102
RTVSPost2010PropOp53
 70
     1
102
RTVSPost2010Prop54
  1
strokes_ogs.tif
102
RTVSPost2010PropOp54
 70
     1
102
RTVSPost2010Prop55
280
     0
102
RTVSPost2010PropOp55
 70
     1
102
RTVSPost2010Prop56
140
1.0
102
RTVSPost2010PropOp56
 70
     1
102
RTVSPost2010Prop57
140
1.0
102
RTVSPost2010PropOp57
 70
     1
  0
XRECORD
  5
639A
102
{ACAD_REACTORS
330
6399
102
}
330
6399
100
AcDbXrecord
280
     1
102
RTVSPropertyOp0
 70
     1
102
RTVSPropertyOp1
 70
     1
102
RTVSPropertyOp2
 70
     1
102
RTVSPropertyOp3
 70
     1
102
RTVSPropertyOp4
 70
     1
102
RTVSPropertyOp5
 70
     1
102
RTVSPropertyOp6
 70
     1
102
RTVSPropertyOp7
 70
     1
102
RTVSPropertyOp8
 70
     1
102
RTVSPropertyOp9
 70
     1
102
RTVSPropertyOp10
 70
     1
102
RTVSPropertyOp11
 70
     1
102
RTVSPropertyOp12
 70
     1
102
RTVSPropertyOp13
 70
     1
102
RTVSPropertyOp14
 70
     1
102
RTVSPropertyOp15
 70
     1
102
RTVSPropertyOp16
 70
     1
102
RTVSPropertyOp17
 70
     1
102
RTVSPropertyOp18
 70
     1
102
RTVSPropertyOp19
 70
     1
102
RTVSPropertyOp20
 70
     1
102
RTVSPropertyOp21
 70
     1
102
RTVSPropertyOp22
 70
     1
102
RTVSPropertyOp23
 70
     1
102
RTVSPropertyOp24
 70
     1
102
RTVSPropertyOp25
 70
     1
102
RTVSPropertyOp26
 70
     1
102
RTVSPropertyOp27
 70
     1
102
RTVSPropertyOp28
 70
     1
102
RTVSPropertyOp29
 70
     1
102
RTVSPropertyOp30
 70
     1
102
RTVSPropertyOp31
 70
     1
102
RTVSPropertyOp32
 70
     1
102
RTVSPropertyOp33
 70
     1
102
RTVSPropertyOp34
 70
     1
102
RTVSPropertyOp35
 70
     1
102
RTVSPropertyOp36
 70
     1
102
RTVSPropertyOp37
 70
     1
102
RTVSPropertyOp38
 70
     1
102
RTVSPropertyOp39
 70
     1
102
RTVSPropertyOp40
 70
     1
102
RTVSPropertyOp41
 70
     1
102
RTVSPropertyOp42
 70
     1
102
RTVSPropertyOp43
 70
     1
102
RTVSPropertyOp44
 70
     1
102
RTVSPropertyOp45
 70
     1
102
RTVSPropertyOp46
 70
     1
102
RTVSPropertyOp47
 70
     1
102
RTVSPropertyOp48
 70
     1
102
RTVSPropertyOp49
 70
     1
102
RTVSPropertyOp50
 70
     1
102
RTVSPropertyOp51
 70
     0
102
RTVSPropertyOp52
 70
     0
102
RTVSPropertyOp53
 70
     1
102
RTVSPropertyOp54
 70
     1
102
RTVSPropertyOp55
 70
     1
102
RTVSPropertyOp56
 70
     1
102
RTVSPropertyOp57
 70
     1
102
RTVSPost2010Prop28
280
     0
102
RTVSPost2010PropOp28
 70
     1
102
RTVSPost2010Prop29
280
     1
102
RTVSPost2010PropOp29
 70
     1
102
RTVSPost2010Prop30
280
     1
102
RTVSPost2010PropOp30
 70
     1
102
RTVSPost2010Prop31
280
     0
102
RTVSPost2010PropOp31
 70
     1
102
RTVSPost2010Prop32
280
     0
102
RTVSPost2010PropOp32
 70
     1
102
RTVSPost2010Prop33
280
     0
102
RTVSPost2010PropOp33
 70
     1
102
RTVSPost2010Prop34
280
     0
102
RTVSPost2010PropOp34
 70
     1
102
RTVSPost2010Prop35
280
     0
102
RTVSPost2010PropOp35
 70
     1
102
RTVSPost2010Prop36
280
     0
102
RTVSPost2010PropOp36
 70
     1
102
RTVSPost2010Prop37
 90
       50
102
RTVSPost2010PropOp37
 70
     1
102
RTVSPost2010Prop38
140
0.0
102
RTVSPost2010PropOp38
 70
     1
102
RTVSPost2010Prop39
140
1.0
102
RTVSPost2010PropOp39
 70
     1
102
RTVSPost2010Prop40
 90
        0
102
RTVSPost2010PropOp40
 70
     1
102
RTVSPost2010Prop41ColorIndex
 90
       18
102
RTVSPost2010Prop41ColorRGB
 90
        0
102
RTVSPost2010PropOp41
 70
     1
102
RTVSPost2010Prop42
 90
       50
102
RTVSPost2010PropOp42
 70
     1
102
RTVSPost2010Prop43
 90
        3
102
RTVSPost2010PropOp43
 70
     1
102
RTVSPost2010Prop44ColorIndex
 90
        5
102
RTVSPost2010Prop44ColorRGB
 90
      255
102
RTVSPost2010PropOp44
 70
     1
102
RTVSPost2010Prop45
280
     0
102
RTVSPost2010PropOp45
 70
     1
102
RTVSPost2010Prop46
 90
       50
102
RTVSPost2010PropOp46
 70
     1
102
RTVSPost2010Prop47
 90
       50
102
RTVSPost2010PropOp47
 70
     1
102
RTVSPost2010Prop48
 90
       50
102
RTVSPost2010PropOp48
 70
     1
102
RTVSPost2010Prop49
280
     0
102
RTVSPost2010PropOp49
 70
     1
102
RTVSPost2010Prop50
 90
       50
102
RTVSPost2010PropOp50
 70
     1
102
RTVSPost2010Prop51ColorIndex
 90
      256
102
RTVSPost2010Prop51ColorRGB
 90
-16777216
102
RTVSPost2010PropOp51
 70
     0
102
RTVSPost2010Prop52
140
1.0
102
RTVSPost2010PropOp52
 70
     0
102
RTVSPost2010Prop53
 90
        2
102
RTVSPost2010PropOp53
 70
     1
102
RTVSPost2010Prop54
  1
strokes_ogs.tif
102
RTVSPost2010PropOp54
 70
     1
102
RTVSPost2010Prop55
280
     0
102
RTVSPost2010PropOp55
 70
     1
102
RTVSPost2010Prop56
140
1.0
102
RTVSPost2010PropOp56
 70
     1
102
RTVSPost2010Prop57
140
1.0
102
RTVSPost2010PropOp57
 70
     1
  0
XRECORD
  5
639C
102
{ACAD_REACTORS
330
639B
102
}
330
639B
100
AcDbXrecord
280
     1
102
RTVSPropertyOp0
 70
     1
102
RTVSPropertyOp1
 70
     1
102
RTVSPropertyOp2
 70
     1
102
RTVSPropertyOp3
 70
     1
102
RTVSPropertyOp4
 70
     1
102
RTVSPropertyOp5
 70
     1
102
RTVSPropertyOp6
 70
     1
102
RTVSPropertyOp7
 70
     1
102
RTVSPropertyOp8
 70
     1
102
RTVSPropertyOp9
 70
     1
102
RTVSPropertyOp10
 70
     1
102
RTVSPropertyOp11
 70
     1
102
RTVSPropertyOp12
 70
     1
102
RTVSPropertyOp13
 70
     1
102
RTVSPropertyOp14
 70
     1
102
RTVSPropertyOp15
 70
     1
102
RTVSPropertyOp16
 70
     1
102
RTVSPropertyOp17
 70
     1
102
RTVSPropertyOp18
 70
     1
102
RTVSPropertyOp19
 70
     1
102
RTVSPropertyOp20
 70
     1
102
RTVSPropertyOp21
 70
     1
102
RTVSPropertyOp22
 70
     1
102
RTVSPropertyOp23
 70
     1
102
RTVSPropertyOp24
 70
     1
102
RTVSPropertyOp25
 70
     1
102
RTVSPropertyOp26
 70
     1
102
RTVSPropertyOp27
 70
     1
102
RTVSPropertyOp28
 70
     1
102
RTVSPropertyOp29
 70
     1
102
RTVSPropertyOp30
 70
     1
102
RTVSPropertyOp31
 70
     1
102
RTVSPropertyOp32
 70
     1
102
RTVSPropertyOp33
 70
     1
102
RTVSPropertyOp34
 70
     1
102
RTVSPropertyOp35
 70
     1
102
RTVSPropertyOp36
 70
     1
102
RTVSPropertyOp37
 70
     1
102
RTVSPropertyOp38
 70
     1
102
RTVSPropertyOp39
 70
     1
102
RTVSPropertyOp40
 70
     1
102
RTVSPropertyOp41
 70
     1
102
RTVSPropertyOp42
 70
     1
102
RTVSPropertyOp43
 70
     1
102
RTVSPropertyOp44
 70
     1
102
RTVSPropertyOp45
 70
     1
102
RTVSPropertyOp46
 70
     1
102
RTVSPropertyOp47
 70
     1
102
RTVSPropertyOp48
 70
     1
102
RTVSPropertyOp49
 70
     1
102
RTVSPropertyOp50
 70
     1
102
RTVSPropertyOp51
 70
     0
102
RTVSPropertyOp52
 70
     0
102
RTVSPropertyOp53
 70
     1
102
RTVSPropertyOp54
 70
     1
102
RTVSPropertyOp55
 70
     1
102
RTVSPropertyOp56
 70
     1
102
RTVSPropertyOp57
 70
     1
102
RTVSPost2010Prop28
280
     0
102
RTVSPost2010PropOp28
 70
     1
102
RTVSPost2010Prop29
280
     1
102
RTVSPost2010PropOp29
 70
     1
102
RTVSPost2010Prop30
280
     1
102
RTVSPost2010PropOp30
 70
     1
102
RTVSPost2010Prop31
280
     0
102
RTVSPost2010PropOp31
 70
     1
102
RTVSPost2010Prop32
280
     0
102
RTVSPost2010PropOp32
 70
     1
102
RTVSPost2010Prop33
280
     0
102
RTVSPost2010PropOp33
 70
     1
102
RTVSPost2010Prop34
280
     0
102
RTVSPost2010PropOp34
 70
     1
102
RTVSPost2010Prop35
280
     0
102
RTVSPost2010PropOp35
 70
     1
102
RTVSPost2010Prop36
280
     0
102
RTVSPost2010PropOp36
 70
     1
102
RTVSPost2010Prop37
 90
       50
102
RTVSPost2010PropOp37
 70
     1
102
RTVSPost2010Prop38
140
0.0
102
RTVSPost2010PropOp38
 70
     1
102
RTVSPost2010Prop39
140
1.0
102
RTVSPost2010PropOp39
 70
     1
102
RTVSPost2010Prop40
 90
        0
102
RTVSPost2010PropOp40
 70
     1
102
RTVSPost2010Prop41ColorIndex
 90
       18
102
RTVSPost2010Prop41ColorRGB
 90
        0
102
RTVSPost2010PropOp41
 70
     1
102
RTVSPost2010Prop42
 90
       50
102
RTVSPost2010PropOp42
 70
     1
102
RTVSPost2010Prop43
 90
        3
102
RTVSPost2010PropOp43
 70
     1
102
RTVSPost2010Prop44ColorIndex
 90
        5
102
RTVSPost2010Prop44ColorRGB
 90
      255
102
RTVSPost2010PropOp44
 70
     1
102
RTVSPost2010Prop45
280
     0
102
RTVSPost2010PropOp45
 70
     1
102
RTVSPost2010Prop46
 90
       50
102
RTVSPost2010PropOp46
 70
     1
102
RTVSPost2010Prop47
 90
       50
102
RTVSPost2010PropOp47
 70
     1
102
RTVSPost2010Prop48
 90
       50
102
RTVSPost2010PropOp48
 70
     1
102
RTVSPost2010Prop49
280
     0
102
RTVSPost2010PropOp49
 70
     1
102
RTVSPost2010Prop50
 90
       50
102
RTVSPost2010PropOp50
 70
     1
102
RTVSPost2010Prop51ColorIndex
 90
      256
102
RTVSPost2010Prop51ColorRGB
 90
-16777216
102
RTVSPost2010PropOp51
 70
     0
102
RTVSPost2010Prop52
140
1.0
102
RTVSPost2010PropOp52
 70
     0
102
RTVSPost2010Prop53
 90
        2
102
RTVSPost2010PropOp53
 70
     1
102
RTVSPost2010Prop54
  1
strokes_ogs.tif
102
RTVSPost2010PropOp54
 70
     1
102
RTVSPost2010Prop55
280
     0
102
RTVSPost2010PropOp55
 70
     1
102
RTVSPost2010Prop56
140
1.0
102
RTVSPost2010PropOp56
 70
     1
102
RTVSPost2010Prop57
140
1.0
102
RTVSPost2010PropOp57
 70
     1
  0
XRECORD
  5
639E
102
{ACAD_REACTORS
330
639D
102
}
330
639D
100
AcDbXrecord
280
     1
102
RTVSPropertyOp0
 70
     1
102
RTVSPropertyOp1
 70
     1
102
RTVSPropertyOp2
 70
     1
102
RTVSPropertyOp3
 70
     1
102
RTVSPropertyOp4
 70
     1
102
RTVSPropertyOp5
 70
     1
102
RTVSPropertyOp6
 70
     1
102
RTVSPropertyOp7
 70
     1
102
RTVSPropertyOp8
 70
     1
102
RTVSPropertyOp9
 70
     1
102
RTVSPropertyOp10
 70
     1
102
RTVSPropertyOp11
 70
     1
102
RTVSPropertyOp12
 70
     1
102
RTVSPropertyOp13
 70
     1
102
RTVSPropertyOp14
 70
     1
102
RTVSPropertyOp15
 70
     1
102
RTVSPropertyOp16
 70
     1
102
RTVSPropertyOp17
 70
     1
102
RTVSPropertyOp18
 70
     1
102
RTVSPropertyOp19
 70
     1
102
RTVSPropertyOp20
 70
     1
102
RTVSPropertyOp21
 70
     1
102
RTVSPropertyOp22
 70
     1
102
RTVSPropertyOp23
 70
     1
102
RTVSPropertyOp24
 70
     1
102
RTVSPropertyOp25
 70
     1
102
RTVSPropertyOp26
 70
     1
102
RTVSPropertyOp27
 70
     1
102
RTVSPropertyOp28
 70
     1
102
RTVSPropertyOp29
 70
     1
102
RTVSPropertyOp30
 70
     1
102
RTVSPropertyOp31
 70
     1
102
RTVSPropertyOp32
 70
     1
102
RTVSPropertyOp33
 70
     1
102
RTVSPropertyOp34
 70
     1
102
RTVSPropertyOp35
 70
     1
102
RTVSPropertyOp36
 70
     1
102
RTVSPropertyOp37
 70
     1
102
RTVSPropertyOp38
 70
     1
102
RTVSPropertyOp39
 70
     1
102
RTVSPropertyOp40
 70
     1
102
RTVSPropertyOp41
 70
     1
102
RTVSPropertyOp42
 70
     1
102
RTVSPropertyOp43
 70
     1
102
RTVSPropertyOp44
 70
     1
102
RTVSPropertyOp45
 70
     1
102
RTVSPropertyOp46
 70
     1
102
RTVSPropertyOp47
 70
     1
102
RTVSPropertyOp48
 70
     1
102
RTVSPropertyOp49
 70
     1
102
RTVSPropertyOp50
 70
     1
102
RTVSPropertyOp51
 70
     0
102
RTVSPropertyOp52
 70
     0
102
RTVSPropertyOp53
 70
     1
102
RTVSPropertyOp54
 70
     1
102
RTVSPropertyOp55
 70
     1
102
RTVSPropertyOp56
 70
     1
102
RTVSPropertyOp57
 70
     1
102
RTVSPost2010Prop28
280
     0
102
RTVSPost2010PropOp28
 70
     1
102
RTVSPost2010Prop29
280
     1
102
RTVSPost2010PropOp29
 70
     1
102
RTVSPost2010Prop30
280
     1
102
RTVSPost2010PropOp30
 70
     1
102
RTVSPost2010Prop31
280
     0
102
RTVSPost2010PropOp31
 70
     1
102
RTVSPost2010Prop32
280
     0
102
RTVSPost2010PropOp32
 70
     1
102
RTVSPost2010Prop33
280
     0
102
RTVSPost2010PropOp33
 70
     1
102
RTVSPost2010Prop34
280
     0
102
RTVSPost2010PropOp34
 70
     1
102
RTVSPost2010Prop35
280
     0
102
RTVSPost2010PropOp35
 70
     1
102
RTVSPost2010Prop36
280
     0
102
RTVSPost2010PropOp36
 70
     1
102
RTVSPost2010Prop37
 90
       50
102
RTVSPost2010PropOp37
 70
     1
102
RTVSPost2010Prop38
140
0.0
102
RTVSPost2010PropOp38
 70
     1
102
RTVSPost2010Prop39
140
1.0
102
RTVSPost2010PropOp39
 70
     1
102
RTVSPost2010Prop40
 90
        0
102
RTVSPost2010PropOp40
 70
     1
102
RTVSPost2010Prop41ColorIndex
 90
       18
102
RTVSPost2010Prop41ColorRGB
 90
        0
102
RTVSPost2010PropOp41
 70
     1
102
RTVSPost2010Prop42
 90
       50
102
RTVSPost2010PropOp42
 70
     1
102
RTVSPost2010Prop43
 90
        3
102
RTVSPost2010PropOp43
 70
     1
102
RTVSPost2010Prop44ColorIndex
 90
        5
102
RTVSPost2010Prop44ColorRGB
 90
      255
102
RTVSPost2010PropOp44
 70
     1
102
RTVSPost2010Prop45
280
     0
102
RTVSPost2010PropOp45
 70
     1
102
RTVSPost2010Prop46
 90
       50
102
RTVSPost2010PropOp46
 70
     1
102
RTVSPost2010Prop47
 90
       50
102
RTVSPost2010PropOp47
 70
     1
102
RTVSPost2010Prop48
 90
       50
102
RTVSPost2010PropOp48
 70
     1
102
RTVSPost2010Prop49
280
     0
102
RTVSPost2010PropOp49
 70
     1
102
RTVSPost2010Prop50
 90
       50
102
RTVSPost2010PropOp50
 70
     1
102
RTVSPost2010Prop51ColorIndex
 90
      256
102
RTVSPost2010Prop51ColorRGB
 90
-16777216
102
RTVSPost2010PropOp51
 70
     0
102
RTVSPost2010Prop52
140
1.0
102
RTVSPost2010PropOp52
 70
     0
102
RTVSPost2010Prop53
 90
        2
102
RTVSPost2010PropOp53
 70
     1
102
RTVSPost2010Prop54
  1
strokes_ogs.tif
102
RTVSPost2010PropOp54
 70
     1
102
RTVSPost2010Prop55
280
     0
102
RTVSPost2010PropOp55
 70
     1
102
RTVSPost2010Prop56
140
1.0
102
RTVSPost2010PropOp56
 70
     1
102
RTVSPost2010Prop57
140
1.0
102
RTVSPost2010PropOp57
 70
     1
  0
XRECORD
  5
63A0
102
{ACAD_REACTORS
330
639F
102
}
330
639F
100
AcDbXrecord
280
     1
102
RTVSPropertyOp0
 70
     1
102
RTVSPropertyOp1
 70
     1
102
RTVSPropertyOp2
 70
     1
102
RTVSPropertyOp3
 70
     1
102
RTVSPropertyOp4
 70
     1
102
RTVSPropertyOp5
 70
     1
102
RTVSPropertyOp6
 70
     1
102
RTVSPropertyOp7
 70
     1
102
RTVSPropertyOp8
 70
     1
102
RTVSPropertyOp9
 70
     1
102
RTVSPropertyOp10
 70
     1
102
RTVSPropertyOp11
 70
     1
102
RTVSPropertyOp12
 70
     1
102
RTVSPropertyOp13
 70
     1
102
RTVSPropertyOp14
 70
     1
102
RTVSPropertyOp15
 70
     1
102
RTVSPropertyOp16
 70
     1
102
RTVSPropertyOp17
 70
     1
102
RTVSPropertyOp18
 70
     1
102
RTVSPropertyOp19
 70
     1
102
RTVSPropertyOp20
 70
     1
102
RTVSPropertyOp21
 70
     1
102
RTVSPropertyOp22
 70
     1
102
RTVSPropertyOp23
 70
     1
102
RTVSPropertyOp24
 70
     1
102
RTVSPropertyOp25
 70
     1
102
RTVSPropertyOp26
 70
     1
102
RTVSPropertyOp27
 70
     1
102
RTVSPropertyOp28
 70
     1
102
RTVSPropertyOp29
 70
     1
102
RTVSPropertyOp30
 70
     1
102
RTVSPropertyOp31
 70
     1
102
RTVSPropertyOp32
 70
     1
102
RTVSPropertyOp33
 70
     1
102
RTVSPropertyOp34
 70
     1
102
RTVSPropertyOp35
 70
     1
102
RTVSPropertyOp36
 70
     1
102
RTVSPropertyOp37
 70
     1
102
RTVSPropertyOp38
 70
     1
102
RTVSPropertyOp39
 70
     1
102
RTVSPropertyOp40
 70
     1
102
RTVSPropertyOp41
 70
     1
102
RTVSPropertyOp42
 70
     1
102
RTVSPropertyOp43
 70
     1
102
RTVSPropertyOp44
 70
     1
102
RTVSPropertyOp45
 70
     1
102
RTVSPropertyOp46
 70
     1
102
RTVSPropertyOp47
 70
     1
102
RTVSPropertyOp48
 70
     1
102
RTVSPropertyOp49
 70
     1
102
RTVSPropertyOp50
 70
     1
102
RTVSPropertyOp51
 70
     0
102
RTVSPropertyOp52
 70
     0
102
RTVSPropertyOp53
 70
     1
102
RTVSPropertyOp54
 70
     1
102
RTVSPropertyOp55
 70
     1
102
RTVSPropertyOp56
 70
     1
102
RTVSPropertyOp57
 70
     1
102
RTVSPost2010Prop28
280
     0
102
RTVSPost2010PropOp28
 70
     1
102
RTVSPost2010Prop29
280
     1
102
RTVSPost2010PropOp29
 70
     1
102
RTVSPost2010Prop30
280
     1
102
RTVSPost2010PropOp30
 70
     1
102
RTVSPost2010Prop31
280
     0
102
RTVSPost2010PropOp31
 70
     1
102
RTVSPost2010Prop32
280
     0
102
RTVSPost2010PropOp32
 70
     1
102
RTVSPost2010Prop33
280
     0
102
RTVSPost2010PropOp33
 70
     1
102
RTVSPost2010Prop34
280
     0
102
RTVSPost2010PropOp34
 70
     1
102
RTVSPost2010Prop35
280
     0
102
RTVSPost2010PropOp35
 70
     1
102
RTVSPost2010Prop36
280
     0
102
RTVSPost2010PropOp36
 70
     1
102
RTVSPost2010Prop37
 90
       50
102
RTVSPost2010PropOp37
 70
     1
102
RTVSPost2010Prop38
140
0.0
102
RTVSPost2010PropOp38
 70
     1
102
RTVSPost2010Prop39
140
1.0
102
RTVSPost2010PropOp39
 70
     1
102
RTVSPost2010Prop40
 90
        0
102
RTVSPost2010PropOp40
 70
     1
102
RTVSPost2010Prop41ColorIndex
 90
       18
102
RTVSPost2010Prop41ColorRGB
 90
        0
102
RTVSPost2010PropOp41
 70
     1
102
RTVSPost2010Prop42
 90
       50
102
RTVSPost2010PropOp42
 70
     1
102
RTVSPost2010Prop43
 90
        3
102
RTVSPost2010PropOp43
 70
     1
102
RTVSPost2010Prop44ColorIndex
 90
        5
102
RTVSPost2010Prop44ColorRGB
 90
      255
102
RTVSPost2010PropOp44
 70
     1
102
RTVSPost2010Prop45
280
     0
102
RTVSPost2010PropOp45
 70
     1
102
RTVSPost2010Prop46
 90
       50
102
RTVSPost2010PropOp46
 70
     1
102
RTVSPost2010Prop47
 90
       50
102
RTVSPost2010PropOp47
 70
     1
102
RTVSPost2010Prop48
 90
       50
102
RTVSPost2010PropOp48
 70
     1
102
RTVSPost2010Prop49
280
     0
102
RTVSPost2010PropOp49
 70
     1
102
RTVSPost2010Prop50
 90
       50
102
RTVSPost2010PropOp50
 70
     1
102
RTVSPost2010Prop51ColorIndex
 90
      256
102
RTVSPost2010Prop51ColorRGB
 90
-16777216
102
RTVSPost2010PropOp51
 70
     0
102
RTVSPost2010Prop52
140
1.0
102
RTVSPost2010PropOp52
 70
     0
102
RTVSPost2010Prop53
 90
        2
102
RTVSPost2010PropOp53
 70
     1
102
RTVSPost2010Prop54
  1
strokes_ogs.tif
102
RTVSPost2010PropOp54
 70
     1
102
RTVSPost2010Prop55
280
     0
102
RTVSPost2010PropOp55
 70
     1
102
RTVSPost2010Prop56
140
1.0
102
RTVSPost2010PropOp56
 70
     1
102
RTVSPost2010Prop57
140
1.0
102
RTVSPost2010PropOp57
 70
     1
  0
ENDSEC
  0
EOF
